?? Dead Leaves intro Tabs – Bangtan Boys

 -------------------------------------------------------------------------------
?? (Dead Leaves) - BTS
-------------------------------------------------------------------------------
: Ryley
Tuning: Standard
and it might not be perfect but it sounds close enough
to me so I hope you like it. Knock yourselves out.
e|---------------------------------------------------------------------------|
B|---------------------------------------------------------------------------|
G|-8-------------------8-----------------------------------------------------|
D|---11-8--------8-11----11-8-------8----------------------------------------|
A|--------11--11--------------11-11------------------------------------------|
E|---------------------------------------------------------------------------| (x2)
e|---------------------------------------------------------------------------|
B|---------------------------------------------------------------------------|
G|---------------------------------------------------------------------------|
D|-1---------------1---------------------------------------------------------|
A|---4-1------1-4----4-1------1----------------------------------------------|
E|-------4--4------------4--4------------------------------------------------| (x2)
************************************
| /   slide up
| \   slide down
| h   hammer-on
| p   pull-off
| ~   vibrato
| +   harmonic
| x   Mute note
| b   Bend
| pb  Pre-bend
| br  Bend release
| pbr Pre-bend release
| brb Bend release bend
************************************