1901 Acoustic Tab by Phoenix

main riff
e----------------4---4-4-4-----------------------------|
a--7---7-7-7-----x---x-x-x-----2---2-2-2-----2---2-2-2-|
d--9---9-9-9-----4---4-4-4-----4---4-4-4-----4---4-4-4-|
g--x---x-x-x-----4---4-4-4-----x---x-x-x-----x---x-x-x-|
b--9---9-9-9-----4---4-4-4-----2---2-2-2-----2---2-2-2-|
e----------------4---4-4-4-----------------------------|
e----------------4---4-4-4-----------------------4-4-4-|
a--7---7-7-7-----x---x-x-x-----2---2-2-2-----2---------|
d--9---9-9-9-----4---4-4-4-----4---4-4-4-----4---4-4-4-|
g--x---x-x-x-----4---4-4-4-----x---x-x-x-----x---x-x-x-|
b--9---9-9-9-----4---4-4-4-----2---2-2-2-----2---2-2-2-|
e----------------4---4-4-4-----------------------------|
this is 100% correct... sorry i dont have the bridge or the rythym any ideas email it to me