1990 Was A Long Year And We Are All Out Of Hot Water Now Tabs by Jordaan Mason And The Horse Museum

 Capo 2nd fret


E||------------------3-|--------------------3-|
B||---------1----------|---------1------------|
G||----0--------0------|----0----------0------|
D||--3---3----3---3----|--3---3------3----3---|
A||--------------------|----------------------|
E||--------------------|----------------------|

E||------------------3-|--------------------3-|
B||---------1----------|---------1------------|
G||----0---------0-----|----0-----------0-----|
D||--2---2-----2---2---|--2---2-------2---2---|
A||--------------------|----------------------|
E||--------------------|----------------------|

There are slight variations in the fingerpicking as the song progresses but this is the main motif
(Visited 1 times, 1 visits today)

Comments are closed.