A Broken Jar Tabs – La Dispute V2

 -------------------------------------------------------------------------------
                             A BROKEN JAR - La Dispute
-------------------------------------------------------------------------------
: ICantEven


Tuning: E Standard 

This is the studio version, the version on wildlife is similar but in a different key. I'm almost 100% that 
this is correct aside from the number of times he hits each chord as he switches it up a bit and you're going 
to have to listen to the track for things like rhythm. Here's the video I went off of
https://www.youtube.com/watch?v=OlETyWy3lyw .

e|----------------------------------------------------------------------------------------------------|
B|--8--8--8--8--10--8--10---10--10--10--10--10--10----------------------------------------------------|
G|--9--9--9--9--9---9--9----9---9---9---9---9---9----9---9---9---9---9---9---9---9---9---9---9---9----|
D|--7--7--7--7--7---7--7----7---7---7---7---7---7----7---7---7---7---7---7---7---7---7---7---7---7----|
A|--7--7--7--7--7---7--7----8---8---8---8---8---8----8---8---8---8---8---8---8---8---8---8---8---8----|
E|---------------------------------------------------10--10--10--10--10--10--10--10--10--10--10--10---| x3


e|----------------------------------------------------------------------------------------------------|
B|--8--8--8--8--10--8--10---10--10--10--10--10--10----------------------------------------------------|
G|--9--9--9--9--9---9--9----9---9---9---9---9---9----9---9---9---9---9---9---9---9---9----------------|
D|--7--7--7--7--7---7--7----7---7---7---7---7---7----7---7---7---7---7---7---7---7---7----------------|
A|--7--7--7--7--7---7--7----8---8---8---8---8---8----8---8---8---8---8---8---8---8---8----------------|
E|---------------------------------------------------10--10--10--10--10--10--10--10--10--8--8--8------|


e|----------------------------------------------------------------------------------------------------|
B|----------------------------------------------------------------------------------------------------|
G|----7--5--------7-----10------10--12--10-----9--10--9------------------7--7--7--7--7--7-------------|
D|----------7------------------------------------------------------------8--8--8--8--8--8-------------|
A|-------------------------------------------------------12--------------6--6--6--6--6--6-------------|
E|--5----------6-----6------10--------------9----------------10--12--10--6--6--6--6--6--6-------------|

e|----------------------------------------------------------------------------------------------------|
B|----------------------------------------------------------------------------------------------------|
G|--6--6--6--6--6--6----3--3--3--3--3--3----2--2--2--2--2--2----2--2--2--2--2--2----2--2--2--2--2--2--|
D|--6--6--6--6--6--6----3--3--3--3--3--3----2--2--2--2--2--2----2--2--2--2--2--2----2--2--2--2--2--2--|
A|--5--5--5--5--5--5----x--x--x--x--x--x----x--x--x--x--x--x----x--x--x--x--x--x----2--2--2--2--2--2--|
E|--5--5--5--5--5--5----3--3--3--3--3--3----2--2--2--2--2--2----1--1--1--1--1--1----------------------|

e|---------------------0------------------------------------------------------------------------------|
B|---------------------0------------------------------------------------------------------------------|
G|--1--1--1--1--1--1---1------------------------------------------------------------------------------|
D|--2--2--2--2--2--2---2--(let ring)------------------------------------------------------------------|
A|--2--2--2--2--2--2---2------------------------------------------------------------------------------|
E|--0--0--0--0--0--0---0------------------------------------------------------------------------------|



e|----------------------------------------------------------------------------------------------------|
B|--8--8--8--8--10--8--10---10--10--10--10--10--10----------------------------------------------------|
G|--9--9--9--9--9---9--9----9---9
(Visited 1 times, 1 visits today)

Comments are closed.