A Cowboys Work Is Never Done Tabs – Matthew Connor

 A Cowboy's Work Is Never Done
Cover by Matthew Connor ft. Julia Haltigan
 Norman


(Verse)
   Cm                                G
   Ride, I used to jump my horse and ride
                         Cm
   I had a six gun at my side
                            G
   I was so handsome, women cried
                              Cm
   And I got shot but I never died


{Whistle Interlude}
 (C#m)                              (C#m)                           (Cm)
e|-16----16p15------15--16-16--16----16----16p15------15---16----16--15--------|
B|--------------17--------------------------------17---------------------------|
G|-----------------------------------------------------------------------------|
D|-----------------------------------------------------------------------------|
A|-----------------------------------------------------------------------------|
E|-----------------------------------------------------------------------------|


(Verse)
           (Cm)                                        (G)
   I could play...            if I do every thing he'd say...
e|-------------------------------------------------------------------------|
B|-----------------4-------------------6-----------------------------------|
G|--------------------4--4h5------------------------8--7-----4-------------|
D|-------------------------------------------------------------5----4-4h5--|
A|-------------------------------------------------------------------------|
E|-------------------------------------------------------------------------|

                                 (Cm)                                          (G)
   Girls seem to just get in his way...       Those days we weren't considered fun...
e|----------------------------------------8-7-----------------------------------8-8/10--|
B|----------------4-----------3---------4-----------------------------------------------|
G|-------------------------------5----5-------------------------------------------------|
D|--------------------------------------------------------------------------------------|
A|--------------------------------------------------------------------------------------|
E|--------------------------------------------------------------------------------------|

                                     (Cm)
         ...A cowboy's work is never done
e|----13-13-------------16------------15----|
B|------------------------------------------|
G|------------------------------------------|
D|------------------------------------------|
A|------------------------------------------|
E|------------------------------------------|


(Chorus)
              Ab            Bb               Cm
   He'd fight crime all the time, he'd always win,
            G                                   Cm
   Till his mom would break it up, and call him in
          Ab            Bb               Cm
   He was tough he was hard, but he was kind
               G                                       Cm
   And he was loved, cause guys like him were hard to find


{Whistle Interlude}
 (C#m)                              (C#m)                           (Cm)
e|-16----16p15------15--16-16--16----16----16p15------15---16----16--15--------|
B|--------------17--------------------------------17---------------------------|
G|-----------------------------------------------------------------------------|
D|-----------------------------------------------------------------------------|
A|-----------------------------------------------------------------------------|
E|-----------------------------------------------------------------------------|


(Verse)
   Cm                                G
   Ride, I'd like to ride again some day
                               Cm
   I think I still know how to play
                                   G
   I'd play games now, but it's no fun
                           
   A cowboy's work is never done...


(Outro)
  (Cm)                    (Gsus)      (G)         (Cm)             

Comments are closed.