A Girl Like You Live Tabs – Black Keys

 -------------------------------------------------------------------------------
                             SONG NAME - Band Name
-------------------------------------------------------------------------------
: dzingariello
 dario.zingariello

Tuning: EADGBe

A Girl like you, originally by Edwyn Collins, as played by The Black Keys 
on a web exclusive of the Tonight Show with Jimmy Fallon.

https://www.youtube.com/watch?v=MowHQDsaSOI



Intro / Chorus
e|-------------------------------------------------------------------------------------|
B|-------------------------------------------------------------------------------------|
G|--------10-(11/12\11)----------------15-12----------10-(11/12\11)--------------------|
D|--10-13--------------10-10----10-13-----------10-13--------------10-10----10-12--8-10|
A|-------------------------------------------------------------------------------------|
E|-------------------------------------------------------------------------------------|

Verse:
e|-------------------------------------------|
B|-------------------------------------------|
G|-------------------------------------------|
D|--10---8-------------8---------------------|
A|-----------10---8-8-10-----10--------------|
E|-------------------------------------------|



************************************

| /   slide up
| \   slide down

************************************
(Visited 1 times, 1 visits today)

Comments are closed.