A Lament Tabs – Wreck and Reference

 -------------------------------------------------------------------------------
                             A LAMENT - Wreck and Reference
-------------------------------------------------------------------------------
: Teddy Salad
Tuning: Standard

The rhythm is slightly tricky for the main melody. Play along with the track.

INTRO: Use delay on this part. This riff is also played one octave lower.
e|------------------------|------------------------|-------------------------|
B|------------------------|------------------------|-------------------------|
G|12-12-12-12-12-12-12-12-|12-12-12-12-15-15-15-10-|10-----------------------|
D|------------------------|------------------------|---13-10-10-10-10-10-13--|
A|------------------------|------------------------|-------------------------|
E|------------------------|------------------------|-------------------------|

e|------------------------|
B|------------------------|
G|------------------------|
D|13-13-13-13-13-13-13-13-|
A|------------------------|
E|------------------------|
There's a slight variation to this melody, played as:
e|------------------------|------------------------|-------------------------|
B|------------------------|------------------------|-------------------------|
G|12-12-12-12-12-12-12-12-|12-12-12-12-15-15-15-10-|10-----------------------|
D|------------------------|------------------------|---13-10-10-10-10-10-13--|
A|------------------------|------------------------|-------------------------|
E|------------------------|------------------------|-------------------------|

e|----------------------|
B|----------------------|
G|----------------------|
D|13-13-13-13-15-15-15--|
A|----------------------|
E|----------------------|

This new line comes in at 1:49.
e|------------------------|           ------------------------------|
B|------------------------|           ---------------13-13-13-13-13-|
G|12----------15-13-12----| x3, then: 12----------------------------|
D|---13-12-13----------15-|           ---13-12-13-15----------------|
A|------------------------|           ------------------------------|
E|------------------------|           ------------------------------|

VERSE:
"Breaking off in tiny rooms, s***ling on the teat of space..."
  G5
e|---------------------------------------------------------------------------|
B|---------------------------------------------------------------------------|
G|12-------------------------------------------------------------------------|
D|12-------------------------------------------------------------------------|
A|10-------------------------------------------------------------------------|
E|---------------------------------------------------------------------------|

"In lucid fields I've come to pass, in the bottle I do see his face..."
  D#5
e|---------------------------------------------------------------------------|
B|---------------------------------------------------------------------------|
G|8--------------------------------------------------------------------------|
D|8--------------------------------------------------------------------------|
A|6--------------------------------------------------------------------------|
E|---------------------------------------------------------------------------|
Repeat these two chords for the rest of the verse.

OUTRO:
e|------------------------------------------------|
B|------------------------------------------------|
G|------------------------------------------------| x4
D|15-15-15-15-15-15-15-13-13-13-13-13-13-13-13-13-| 
A|------------------------------------------------|
E|------------------------------------------------|

"WWWAAAAAAAAAAAAAGHGHGHAAAAAAAAAAAGHGHAAAAWWWAHHHHUUUUUUUUGHGHGHHHAAAAAA"
  G5
e|---------------------------------------------------------------------------|
B|---------------------------------------------------------------------------|
G|12-------------------------------------------------------------------------|
D|

Comments are closed.