Angry All The Time intro Tabs – Tim McGraw

 -------------------------------------------------------------------------------
                             Angry all the time- Tim McGraw
-------------------------------------------------------------------------------
:Jébb


Tuning: Standar

e|-----------------------------2-------0------------0--------------------------|
B|---------3/5---5---3/5\3-----2h3-----0----3/5\3---2--------------------------|
G|---------4/6---6---4/6\4-----2-------4----4/6\4---2--------------------------|
D|---------0-----7-------------2h4-----2------------2--------------------------|
A|-----0-----------------------2-------2------------0--------------------------|
E|-0h2---------------------------------0---------------------------------------|

Here's the intro!
Enjoy

************************************

| \   slide up
| /   slide down
| h   hammer-on


************************************
(Visited 1 times, 1 visits today)

Comments are closed.