Annie Tabs – Mac Demarco

 -------------------------------------------------------------------------------
                             Annie - Mac Demarco
-------------------------------------------------------------------------------
: originally by weino523, breakdown by DrWangerBanger


Tuning: Standard, capo on 4

    E  G  A  F
e|-----3--5--1--------|
B|-----3--5--1--------|
G|--1--4--6--2--------|
D|--2--5--7--3--------|
A|--2--5--7--3--------|
E|-----3--5--1--------|

"I'm going down" breakdown:

Here are the 4 basic chords:

e|-----------0-----|
B|--5--0--0--0-----|
G|--5--3--2--1-----|
D|--4--2--1--2-----|
A|-----------2-----|
E|--5--3--2--0-----|

Intro: A G E 4x

A   G
Annie 
E          A         G
knows when its me
E          A       G     E         A       G   E
Knows how Im feeling and gives me her healing
   A   G  E        A      G
Oh Annie, sit down beside me
E       A         G    F                E                        
Let me confide in you, you know when Im blue        
F                E           F          E
You know when Im lonely and, honey, Im lonely

e|-------------------------------------------------------0--2--2---|
B|-----------5-------------------------------0--0-----0--------0---|
G|--------5-----------0--3--4--4--0-------2-----1--1-----------1---|
D|-----4-----------2-------------------1--------2--------------2---|
A|----------------------------------------------2--------------2---|
E|--5-----------3-------------------2-----------0--------------0---|

Im going down, going down, going down, going down 

A   G  E              A   G
Annie, daddy wont let me
E           A     G       E          A        G   E
Daddy wont let me go and thats why I feel so low
   A   G   E       A      G
Oh Annie, sit down beside me
E       A         G    F                E                        
Let me confide in you, you know when Im blue        
F                E           F          E
You know when Im lonely and, honey, Im lonely

e|-------------------------------------------------------0--2--2---|
B|-----------5-------------------------------0--0-----0--------0---|
G|--------5-----------0--3--4--4--0-------2-----1--1-----------1---|
D|-----4-----------2-------------------1--------2--------------2---|
A|----------------------------------------------2--------------2---|
E|--5-----------3-------------------2-----------0--------------0---|

Im going down, going down, going down, going down

************************************

| /   slide up
| \   slide down
| h   hammer-on
| p   pull-off
| ~   vibrato
| +   harmonic
| x   Mute note
| b   Bend
| pb  Pre-bend
| br  Bend release
| pbr Pre-bend release
| brb Bend release bend

************************************
(Visited 1 times, 1 visits today)

Comments are closed.