-------------------------------------------------------------------------------
                             SONG NAME - Band Name
-------------------------------------------------------------------------------
: Demian 
maybeshewillz@mail.ru

Tuning: Half-Step Down

If you want to play this song in such a way that sound like two guitars, but you are alone,
this intro will help you. The main thing - to correctly understand strumming pattern.

Intro:

eb|---------------------------------------------------------------------------|(x3)
Bb|-0-0-00---------0-0-00-4-4-44----------------------------------------------|
Gb|-1-1-11---------2-2-22-2-2-22----------------------------------------------|
Db|-2-2-22-4-4-44--2-2-22-2-2-22----------------------------------------------|
Ab|-2-2-22-2-2-22--0-0-00-0-0-00----------------------------------------------|
Eb|--------0-0-00-------------------------------------------------------------|

eb|---------------------------------------------------------------------------|
Bb|---------------------------------------------------------------------------|
Gb|-4-4-4-4-4/9-9-7-7-5-5-5---------------------------------------------------|
Db|-4-4-4-4-4/9-9-7-7-5-5-5---------------------------------------------------|
Ab|-2-2-2-2-2/7-7-5-5-3-3-3---------------------------------------------------|
Eb|---------------------------------------------------------------------------|

Verse: 

eb|---------------------------------------------------------------------------|
Bb|---------------------------------------------------------------------------|
Gb|--6-------9----------------------------------------------------------------|
Db|--6---7---9---9------------------------------------------------------------|
Ab|--4---7---7---9------------------------------------------------------------|
Eb|------5-------7------------------------------------------------------------|

Brigde:

Destination anywhere but here...

eb|---------------------------------------------------------------------------|
Bb|---------------------------------------------------------------------------|
Gb|---------------------------------------------------------------------------|
Db|-4-4-4-4-4-4-4-4(x)-2(x)----(x - palm mute)--------------------------------|
Ab|-4-4-4-4-4-4-4-4(x)-2(x)---------------------------------------------------|
Eb|-2-2-2-2-2-2-2-2(x)-0(x)---------------------------------------------------|

Chorus:

eb|---------------------------------------------------------------------------|(x3)
Bb|-0-0-00---------0-0-00-4-4-44----------------------------------------------|
Gb|-1-1-11---------2-2-22-2-2-22----------------------------------------------|
Db|-2-2-22-4-4-44--2-2-22-2-2-22----------------------------------------------|
Ab|-2-2-22-2-2-22--0-0-00-0-0-00----------------------------------------------|
Eb|--------0-0-00-------------------------------------------------------------|

eb|---------------------------------------------------------------------------|
Bb|---------------------------------------------------------------------------|
Gb|-4-4-4-4-4-----------------------------------------------------------------|
Db|-4-4-4-4-4-----------------------------------------------------------------|
Ab|-2-2-2-2-2-----------------------------------------------------------------|
Eb|---------------------------------------------------------------------------|

Brigde:

I'm so tired and turned around
And scared...

eb|---------------------------------------------------------------------------|
Bb|---------------------------------------------------------------------------|
Gb|--6-----------4-------(just single notes)----------------------------------|
Db|--6---7---2---4------------------------------------------------------------|
Ab|--4---7---2---2------------------------------------------------------------|
Eb|------5---0----------------------------------------------------------------|

and then chorus again.

Tab fo