Aurinko Nousee intro Tabs – Kls

 -------------------------------------------------------------------------------
Aurinko Nousee - Kls
-------------------------------------------------------------------------------
My version of the song intro
Capo 8th
Tuning: Standard
e|--------------------------------|
B|-1----1---0---------------------|
G|---2--------(2)--2----2---0-----|
D|--------------------2-----------|
A|-0---------------0--------------|
E|--------------------------------|
e|--------------------------------|
B|--------------------------------|
G|-2----2---0---------------------|
D|---0--------(0)---2-------------|
A|--------------------------------|
E|-3----------------3-------------|
e|--------------------------------|
B|--------------------------------|
G|--------------------------------|
D|-0----0---0--2-----------0------|
A|---0-----------0------0-----0---|
E|-1-----------------1------------|
e|--------------------------------|
B|--------------------------------|
G|--------------------------------|
D|-0----0---0--2---------0--------|
A|---0-----------2----2-----2-----|
E|-3----------------3-------------|
************************************
************************************