Backlash Tabs – Antiseen

 Intro
E---------------------------------|-------------------------------------------------|
B---------------------------------|-------------------------------------------------|
G---------------------------------|-------3-3-3-------------------3-3-3-------------|
D-5-5-----5-5-----5-5-----5-5-----|-5-5-5-3-3-3-5-5-5-3-3-3-5-5-5-3-3-3-5-5-5-3-3-3-|
A-5-5-----5-5-----5-5-----5-5-----|-5-5-5-1-1-1-5-5-5-3-3-3-5-5-5-1-1-1-5-5-5-3-3-3-|
E-3-3-----3-3-----3-3-----3-3-----|-3-3-3-------3-3-3-1-1-1-3-3-3-------3-3-3-1-1-1-|


Verse
E-------------------------------------|-------------------------------------|
B-------------------------------------|-------------------------------------|
G-------------3-3-3-------------------|-------------3-3-3-------------------|
D-5-5-----5-5-3-3-3-5-5-----5-5-3-3-3-|-5-5-----5-5-3-3-3-5-5-----5-5-3-3-3-|
A-5-5-----5-5-1-1-1-5-5-----5-5-3-3-3-|-5-5-----5-5-1-1-1-5-5-----5-5-3-3-3-|
E-3-3-----3-3-------3-3-----3-3-1-1-1-|-3-3-----3-3-------3-3-----3-3-1-1-1-|


Pre-Chorus ("You run my name...")
E-------------------------|-------------------------|-------------------------|-------------------------|
B-------------------------|-------------------------|-------------------------|-------------------------|
G-------3-3-3-------5-5-5-|-------3-3-3-------5-5-5-|-------3-3-3-------5-5-5-|-------3-3-3-------5-5-5-|
D-5-5-5-3-3-3-3-3-3-5-5-5-|-5-5-5-3-3-3-3-3-3-5-5-5-|-5-5-5-3-3-3-3-3-3-5-5-5-|-5-5-5-3-3-3-3-3-3-5-5-5-|
A-5-5-5-1-1-1-3-3-3-3-3-3-|-5-5-5-1-1-1-3-3-3-3-3-3-|-5-5-5-1-1-1-3-3-3-3-3-3-|-5-5-5-1-1-1-3-3-3-3-3-3-|
E-3-3-3-------1-1-1-------|-3-3-3-------1-1-1-------|-3-3-3-------1-1-1-------|-3-3-3-------1-1-1-------|


Chorus ("Backlash!")
E---------------------------------------------------------|
B---------------------------------------------------------|
G---------------3-3-3-------------------3-3-3-------------|
D-5-5-----5-5-5-3-3-3-5-5-5-3-3-3-5-5-5-3-3-3-5-5-5-3-3-3-|
A-5-5-----5-5-5-1-1-1-5-5-5-3-3-3-5-5-5-1-1-1-5-5-5-3-3-3-|
E-3-3-----3-3-3-------3-3-3-1-1-1-3-3-3-------3-3-3-1-1-1-|


Verse
E-------------------------------------|-------------------------------------|
B-------------------------------------|-------------------------------------|
G-------------3-3-3-------------------|-------------3-3-3-------------------|
D-5-5-----5-5-3-3-3-5-5-----5-5-3-3-3-|-5-5-----5-5-3-3-3-5-5-----5-5-3-3-3-|
A-5-5-----5-5-1-1-1-5-5-----5-5-3-3-3-|-5-5-----5-5-1-1-1-5-5-----5-5-3-3-3-|
E-3-3-----3-3-------3-3-----3-3-1-1-1-|-3-3-----3-3-------3-3-----3-3-1-1-1-|


Pre-Chorus ("You run my name...")
E-------------------------|-------------------------|-------------------------|-------------------------|
B-------------------------|-------------------------|-------------------------|-------------------------|
G-------3-3-3-------5-5-5-|-------3-3-3-------5-5-5-|-------3-3-3-------5-5-5-|-------3-3-3-------5-5-5-|
D-5-5-5-3-3-3-3-3-3-5-5-5-|-5-5-5-3-3-3-3-3-3-5-5-5-|-5-5-5-3-3-3-3-3-3-5-5-5-|-5-5-5-3-3-3-3-3-3-5-5-5-|
A-5-5-5-1-1-1-3-3-3-3-3-3-|-5-5-5-1-1-1-3-3-3-3-3-3-|-5-5-5-1-1-1-3-3-3-3-3-3-|-5-5-5-1-1-1-3-3-3-3-3-3-|
E-3-3-3-------1-1-1-------|-3-3-3-------1-1-1-------|-3-3-3-------1-1-1-------|-3-3-3-------1-1-1-------|


Chorus ("Backlash!")
E---------------------------------------------------------|
B---------------------------------------------------------|
G---------------3-3-3-------------------3-3-3-------------|
D-5-5-----5-5-5-3-3-3-5-5-5-3-3-3-5-5-5-3-3-3-5-5-5-3-3-3-|
A-5-5-----5-5-5-1-1-1-5-5-5-3-3-3-5-5-5-1-1-1-5-5-5-3-3-3-|
E-3-3-----3-3-3-------3-3-3-1-1-1-3-3-3-------3-3-3-1-1-1-|


Bridge  ("I run your name")                                     x2
E-----------------------------------------------------------------|
B-----------------------------------------------------------------|
G-----------------------------------------------------------------|
D-5-5-----5-5-----5-5-----5-5-----5-5-----5-5-----5-5-----5-5-----|
A-5-5-----5-5-----5-5-----5-5-----5-5-----5-5-----5-5-----5-5-----|