Beat Of My Heart solo Tabs – Noisettes

 -------------------------------------------------------------------------------
Beat of My Heart - The Noisettes
-------------------------------------------------------------------------------
: AngelLombard
Tuning: Standard
Dan plays it with plenty of vibrato so just throw some in here and there when it feels right :)
Any corrections or comments are 100% welcome.
e|---16161616--14--12-14--12--14--16-----------------------------------------|
B|---------------------------------------------------------------------------|
G|---------------------------------------------------------------------------|
D|---------------------------------------------------------------------------|
A|---------------------------------------------------------------------------|
E|---------------------------------------------------------------------------|
e|----16161616--14--12-17--16--14--12----------------------------------------|
B|------------------------------------161616-17--12-161616-17--12-161616-17--|
G|---------------------------------------------------------------------------|
D|---------------------------------------------------------------------------|
A|---------------------------------------------------------------------------|
E|---------------------------------------------------------------------------|
e|---------------------------------------------------------------------------|
B|----161616-17-19-----------------------------------------------------------|
G|---------------------------------------------------------------------------|
D|---------------------------------------------------------------------------|
A|---------------------------------------------------------------------------|
E|---------------------------------------------------------------------------|
e|----16161616--14--12-17--16--14--12----------------------------------------|
B|------------------------------------161616-17--12-161616-17--12-161616-17--|
G|---------------------------------------------------------------------------|
D|---------------------------------------------------------------------------|
A|---------------------------------------------------------------------------|
E|---------------------------------------------------------------------------|
e|---------------------------------------------------------------------------|
B|-----161616-1414(14)--12\--------------------------------------------------|
G|---------------------------------------------------------------------------|
D|---------------------------------------------------------------------------|
A|---------------------------------------------------------------------------|
E|---------------------------------------------------------------------------|
************************************
| /   slide up
| \   slide down
| h   hammer-on
| p   pull-off
| ~   vibrato
| +   harmonic
| x   Mute note
| b   Bend
| pb  Pre-bend
| br  Bend release
| pbr Pre-bend release
| brb Bend release bend
************************************