Black Heart Tabs – The Damned Things

 Intro:
e|--------------------------------------------------------------------------------------------------|
B|--------------------------------------------------------------------------------------------------|
G|---------------------------------------------------------------------------2h4-------2---4-2-4-4--|
D|--2h4-2h4-2---2h4-x-4-4---4-6h7-4---4-6464-2-4-4-4-6h7-4---4-6-6-4-2-4-4-4-----4-2-4---4---2-4-4--|
A|------------4-----x-4-4-----------7--------2-4-4---------7---------2-4-4-------------------0-2-2--|
E|------------------x-2-2--------------------0-2-2-------------------0-2-2--------------------------|
*these are half note triplets  intro ends, begin verse
e|----------------------------|---------------------------------------------------------------------------|
B|----7-5---------------------|---------------------------------------------------------------------------|
G|--6-----6-5-4---------------|---------------------------------------------------------------------------|
D|--------------7-------------|------2-4-4---------------------2h4---------2-4-4---------------------2h4--|
A|----------------------------|------2-4-4---------------------2h4---------2-4-4---------------------2h4--|
E|----------------------------|--5-4-0-2-2---------------5--4--0h2-----5-4-0-2-2---------------5--4--0h2--|
* * *                                 * * *
e|--------------------------------------------------------------------------------------------|
B|----------7--7-7-7-7-9-7---7--7-7-7-7-9-7---------------------------------------------------|
G|--------4-7--7-7-7-7-9-7-4-7--7-7-7-7-9-7---------------------------------------------------|
D|--------4-9--9-9-9-9-9-9-4-9--9-9-9-9-9-9--4-4---------------------2h4----------------------|
A|--------2----------------2-----------------4-4---------------------2h4----------------------|
E|--5-4-0------------------------------------2-2---------------5--4--0h2---------------5-4-0--|
* * *
Prechorus (Suddenly not swing 8ths)         Chorus
e|---------------------------------------| |-------------------------------------|
B|---------------------------------------| |-------------------------------------|
G|---------------------------------------| |-------4x4--4-4----------------------|
D|--6664/6664/66666664/6664/6664/6666666-| |--7--7-4x4--4-4-2h4442h4442h4442h444-|  X3
A|--6664/6664/66666664/6664/6664/6666666-| |--7--7-2x2--2-2-2h4442h4442h4442h444-|
E|--4442/4442/44444442/4442/4442/4444444-| |--5--5----------0h2220h2220h2220h222-|
after 3rd time, do:
e|-------------------------|
B|-------------------------|
G|--4-4--------------------|   <-- After this part, repeat intro exactly
D|--4-4---------------2-2--|
A|--2-2-4h5-5-5-----5-2-2--|
E|--------------2-5---0-0--|
then repeat verse in full 
*except, when playing the Bm-Emaj 2nd inversion-root part, after the first 5 of the 2nd run, play:
e|-7-5---5h7--|   then continue
B|-----7------|
then prechorus-chorus again but chorus ends differently- lead-in to solo
e|--------------------------------|
B|--------------------------------|
G|--4-4---------------------------|
D|--4-4---------------2-2---------|
A|--2-2-4h5-5-5-----5-2-2-2-2-2h4-|
E|--------------2-5---0-0---------|
Solo:
gtr 2 plays this during 1st part
e|----------------------| |--------------------------|    |-------------------------------------|
B|----------------------| |--------------------------|    |-------------------------------------|
G|----------------------| |---4~-------------------4-| X2 |--6--6-6--6-6------6--6-6--6-6-x2-x4-| X2
D|--4------2-4------2---| |---4~--4---2-4-4--2---2-4-|    |--6--6-6--6-6-4-2--6--6-6--6-6-x2-x4-|
A|--4------2-4------2---| |---2~--4---2-4-4--2---2-2-|    |--4--4-4--4-4-4-2--4--4-4--4-4-x0-x2-|
E|--2------0-2------0---| |-------2---0-2-2--0---0---|    |--------------2-0--------------------|
Gtr 1(in between hits on the first part):
e|------------------------------------------| |--------------------------