Black Hole Sun chords – Soundgarden V6

 , so be nice :) very simple, hopefully it sounds alright.

Cadd2 ( Can be played in different ways)
e --0--
B --3--
G --0--
D --2--
A --3--
E---X--

Intro:
 
e----------------|-----------|-----------------|------------|
B-------3--------|-------3---|-------3---------|-------2----|
G-----2----2-----|-----2-----|-----0----0------|------------|
D---2--------2---|---2-------|---0--------0----|-----4------|
A-0------------0-|-3---------|-----------------|---4--------|
E----------------|-----------|-3-------------0-|-2--------0-|
 
 
e----------------|-----------|
B----------------|-----------|
G-------3--------|--------4--|
D-----3----3-----|------2----|
A---3--------3---|----5------|
E-1------------1-|--0--------|



Verse:
       A Cadd2 
In my eyes, indisposed
       G F# 
in disguise as no one knows
           F E5 
hides the face, lies the snake
     A G F# 
the sun in my disgrace
         A Cadd2 
Boiling heat, summer stench
             G F# 
beneath the black the sky looks dead
         F E5 
call my name through the cream
          A G F# 
and I'll hear you, scream again
 

Chorus:
            F E         
Black hole sun, won't you come
     A G C 
wash away the rain
            F E 
Black hole sun, won't you come
           D 
won't you come 
           E 
won't you come


Verse 2:
     A Cadd2 
Stuttering, cold and damp
           G F# 
steal the warm wind tired friend
           F E5 
times are gone for honest men
                 A G F# 
and sometimes far too long to snakes
       A Cadd2 
In my shoes a walking sleep
        G F# 
and my youth i pray to keep
        F E5 
heaven send hell away
             A G F# 
no one sings like you anymore


Chorus:
            F E         
Black hole sun, won't you come
     A G C 
wash away the rain
            F E 
Black hole sun, won't you come
           D C 
won't you come    

               F E         
Black hole sun, won't you come
     A G C 
wash away the rain
            F E 
Black hole sun, won't you come
           D 
won't you come                                        
                   C E7 
Black Hole Sun! Black Hole Sun!
                 D       
Won't you come?
                   C E7 
Black Hole Sun! Black Hole Sun!
                 D       
Won't you come? 
                   C E7 
Black Hole Sun! Black Hole Sun!
                 D       
Won't you come? 
                   C E7 
Black Hole Sun! Black Hole Sun!

Break:
e---------------------------|
B---------------------------|
G---------------------------|
D---------------------------|
A---3--2--0--3--------------|
E------------------3--2--1--| x6


E---1/3 -3--------------|



              A                     Cadd
Hang my head, drown my fear
          G F# 
Till you all just disappear


Chorus
(Visited 1 times, 1 visits today)

Comments are closed.