Black Honey chords – Thrice Vsion 2

 [Intro]
e|----------------|----------------|----------------|----------------|
B|----------------|----------------|----------------|----------------|
G|----2-----2---2-|----2-----2---2-|----2-----2---2-|----2-------0-2-|
D|----------------|----------------|----------------|----------3-----| X4
A|0---------------|----------------|0---------------|----------------|
E|----------------|1---------------|----------------|1------1--------|
[Verse 1]
(Finger)picking continues through the verse
Am F Am 
I keep swinging my hand through a swarm of bees ‘cause I ...
F Am F Am F 
I want honey on my table
Am F Am 
I keep swinging my hand through a swarm of bees ‘cause I ...
F Am F Am F 
I want honey on my table
[Pre-chorus 1]
The picking that accompanies the chords
e|----------------|----------------|----------------|----------------|
B|----------------|----------------|----------------|----------------|
G|----4-----4---4-|----4-----4---4-|----2-----2---2-|----2-----2---2-|
D|----------------|----------------|----------------|----------------| x2
A|----------------|----------------|----------------|----------------|
E|3-----------3---|3-----------3---|1-----------1---|1-----------1---|
G F 
But I never get it right 
G F 
no I never get it right
[Chorus 1]
Am F Fmaj7 
I keep swinging my hand through a swarm of bees
Am F Fmaj7 
I can’t understand why they’re stinging me
Am Asus2 F Fmaj7 
But I’ll do what I want, I’ll do what I please
Am Asus2 F 
I’ll do it again till I got what I need
Am F Fmaj7 
I’ll rip and smash through the hornet’s nest
Am F Fmaj7 
Don’t they understand I deserve the best
F Fmaj7 F Fmaj7 
And I’ll do what I want, I’ll do what I please
E Esus4 E 
I’ll do it again till I got what I need
[Verse 2]
With the intro picking tab
Am F Am F  x2
Am F Am 
I tried to stick this pin through a butterfly ‘cause I ...
F Am F Am F 
I like all the pretty colors
Am F Am 
But it just fell apart so I flung it in the fire 
F Am F Am F 
to burn with all the others
[Pre-chorus 1]
G F 
Cause I never get it right
G F 
No, I never get it right
[Chorus 1]
Am F Fmaj7 
I keep swinging my hand through a swarm of bees
Am F Fmaj7 
I can’t understand why they’re stinging me
Am Asus2 F Fmaj7 
But I’ll do what I want, I’ll do what I please
Am Asus2 F 
I’ll do it again till I got what I need
Am F Fmaj7 
I’ll rip and smash through the hornet’s nest
Am F Fmaj7 
Don’t they understand I deserve the best
F Fmaj7 F Fmaj7 
And I’ll do what I want, I’ll do what I please
E Esus4 E 
I