Black Sun chords – Death Cab For Cutie V2

 Death Cab For Cutie - Black Sun
Capo 7th   
Intro
  Em               | D                | Am                |                 ||x2
-----------------|----------------|-----------------|-----------------|
-----------------|----------------|-----------------|-----------------|
-----------------|----------------|-----------------|-----------------|
-2---2---2---2---|0---0---0---0---|-----------------|-7---7---7---7---|
---2---2---2---2-|--2---2---2---2-|-0---0---0---0---|---0---0---0---0-|
-----------------|----------------|---3---3---3---3-|-----------------|


Verse 1
 Em D Am 
 There is whisky in the water and there is death upon the vine
 Em D                                    
 There is fear in the eyes of your father 
Am                                   Em*  (A)-7-7-7-5--
 And there is "Yours" and there is "Mine" (E)--0-0-0-0-
 Em D Am 
 There is a desert veiled in pavement and there's a city of seven hills
Em                               D    Am                         Em** (A)-7-5-7-5--
 And all our debris flows to the ocean to meet again, I hope it will  (E)--0-0-0-0-


Chorus
      C G/B       Dadd4(9)     Em 
---------------------------------------------
--------1----------3--------5----------8-----
-------0--0-------0--0-----0--0-------0--0---
------2----2-----0----0---4----4-----5----5--
-----3----------2--------5----------7--------
---------------------------------------------
How could something so fair be so cruel
        C G/B D Em 
When this black sun revolved around you


Interlude     Em     | D      | Am     |      ||


Verse 2
 Em D Am 
 There is an answer in a question and there is hope within despair
 Em D Am                 Em*
 And there is beauty in a failure and there are depths beyond compare
 Em D Am 
 There is a role of a lifetime and there's a song yet to be sung
 Em D Am                              Em**
 And there's a dumpster in the driveway of all the plans that came undone


Chorus
      C G/B D Em 
How could something so fair be so cruel
        C G/B D Em 
When this black sun revolved around you
      C G/B D Em 
How could something so fair be so cruel
        C G/B D Em 
When this black sun revolved around you


Solo   Em     | D      | Am      |      |
       Em     | D      | Am      | Em     ||


Verse 3
 Em D Am 
 There is whisky in the water and there is death upon the vine
 Em D       Em**
 And there is grace within forgiveness but it's so hard for me to find



Chorus
      C G/B D Em 
How could something so fair be so cruel
        C G/B D Em 
When this black sun revolved around you
      C G/B D Em 
How could something so fair be so cruel
        C G/B D Em 
When this black sun revolved around you
(Visited 1 times, 1 visits today)

Comments are closed.