In My Blood chords by Shawn Mendes

Standard tuning. Corrections welcome.

  F     Bb    Dm    F
e|------6-----5-----1-----|
B|10----6-----6-----1-----|
G|10----7-----7-----2-----|
D|10----8-----7-----3-----|
A|8-----8-----5-----3-----|
E|------6-----------1-----|

[Intro]
  F                                Bb
e|--------------------------------|--------------------------------|
B|10------10------10------10------|--------------------------------|
G|--------------------------------|7-------7-------7-------7-------|
D|----10------10------10------10--|--------------------------------|
A|8-----8-8-----8-8-----8-8-----8-|----8-------8-------8-------8---|
E|--------------------------------|6-----6-6-----6-6-----6-6-----6-|

  Dm                               Bb
e|--------------------------------|--------------------------------|
B|--------------------------------|--------------------------------|
G|7-------7-------7-------7/9-----|7-------7-------7-------7-------|
D|----7-------7-------7-----------|--------------------------------|
A|5-----5-5-----5-5-----5---------|----8-------8-------8-------8---|
E|--------------------------------|6-----6-6-----6-6-----6-6-----6-|

F                      Bb
Help me, it's like the walls are caving in
    Dm
Sometimes I feel like giving up
    Bb                           F
But I just can't, it isn't in my blood


[Verse 1]
                                              Bb
Laying on the bathroom floor, feeling nothing

I'm overwhelmed and insecure
                  Dm
Give me something
                                    Bb
I could take to ease my mind slowly
                                  F
Just have a drink and you'll feel better
                                   Bb
Just take her home and you'll feel better
                             Dm
Keep telling me that it gets better
        Bb
Does it ever?


[Chorus]
F                      Bb
Help me, it's like the walls are caving in
    Dm
Sometimes I feel like giving up
   Bb
No medicine is strong enough
        F
Someone help me
    Bb
I'm crawling in my skin
    Dm
Sometimes I feel like giving up
    Bb                           F      Bb
But I just can't, it isn't in my blood
               Dm     Bb
It isn't in my blood


[Verse 2]
F                                              Bb
Looking through my phone again feeling anxious
                                      Dm
Afraid to be alone again, I hate this
                                         Bb
I'm trying to find a way to chill, can't breathe, oh
                             F
Is there somebody that could help me?


[Chorus]
              Bb
It's like the walls are caving in
    Dm
Sometimes I feel like giving up
   Bb
No medicine is strong enough
        F
Someone help me
    Bb
I'm crawling in my skin
    Dm
Sometimes I feel like giving up
    Bb                           F      Bb
But I just can't, it isn't in my blood
               Dm     Bb
It isn't in my blood


[Bridge]
                F
I need somebody now
                Bb
I need somebody now
                   Dm
Someone to help me out
                Bb
I need somebody now


[Outro]
F
Help me
              Bb
It's like the wall are caving in
    Dm
Sometimes I feel like giving up
    Bb                           F       Bb
But I just can't, it isn't in my blood
               Dm     Bb
It isn't in my blood
               F
It isn't in my blood
                Bb
I need somebody now
               Dm
It isn't in my blood
                Bb
I need somebody now
               F      Bb   Dm   Bb
It isn't in my blood

Comments are closed.