Bodzavirág Tab by Balázs Árpád

Capo 3rd fret

[Verse]
e|---5-------2--0----|--5---5--8--7-----5-----5--3--5----| 
B|-5---8--5--3----3--|--5---5-----5-----5-----3----------| 
G|-------------------|----5----------5----5--------------| 
D|-----------0-------|------------------------0----------| 
A|-0-----------------|--0---------0----------------------|
E|-------------------|-----------------------------------|
e|-5---5--8--7-----5----3---3—0--------|------------------0---0--0--0---0-|
B|-5---5-----5-----5-------------3--1--|-3---3---1---3----0---0-----0---0-|
G|---5----------5----5----0--------0---|---0---0---0---0----1---------1---|
D|-------------------------------------|----------------------------------|
A|-0---------0----------3--------------|-1--------------------------------|
E|-------------------------------------|------------------0---------0-----|
[Chorus]
e|-0---0-----0----3---2----2--0--2------|
B|-1---1--3--1----1---3----3-----3---3--|
G|---2---------2----2----2---------2----|
D|--------------------0----------0------|
A|-0---------0--------------------------|
E|--------------------------------------|
e|-0---0-----0----------------0---------|
B|-1---1--3--1----1-1-3----3-----3------|
G|---2---------2---------2----------2---|
D|--------------------0-----------------|
A|-0---------0--------------------------|
E|--------------------------------------|
e|-0---0-----0----3---2----2--0--2------|
B|-1---1--3--1----1---3----3-----3---3--|
G|---2---------2----2----2---------2----|
D|--------------------0----------0------|
A|-0---------0--------------------------|
E|--------------------------------------|
e|--------------------------------------|
B|-1---1--0--1-------0----0-----0----0--|
G|-2---2-----2----2--1----1--2--1----1--|
D|---3----------3-------2----------2----|
A|-------------------2----------2-------|
E|-1---------1--------------------------|
[Verse]
e|---5-------2--0--------------|-5---5--8--7-----5-----5--3--5--------------|
B|-5---8--5--3----3-------3----|-5---5-----5-----5-----3--------3------3----| 
G|------------------2---2----2-|---5----------5----5----------------2-----2-| 
D|-----------0--------0--------|-----------------------0----------0---------| 
A|-0---------------------------|-0---------0--------------------------------|
E|-----------------------------|--------------------------------------------|
e|-5---5--8--7-----5----3---3—0--------|------------------0---0--0--0---0--|
B|-5---5-----5-----5-------------3--1--|-3---3---1---3----0---0-----0---0--|
G|---5----------5----5----0--------0---|---0---0---0---0----1-------------|
D|-------------------------------------|-----------------------------------|
A|-0---------0----------3--------------|-1---------------------------------|
E|-------------------------------------|------------------0---------0------|
[Chorus]
e|-0---0-----0----3---2----2--0--2------|
B|-1---1--3--1----1---3----3-----3---3--|
G|---2---------2----2----2---------2----|
D|--------------------0----------0------|
A|-0---------0--------------------------|
E|--------------------------------------|
e|-0---0-----0----------------0---------|
B|-1---1--3--1----1-1-3----3-----3------|
G|---2---------2---------2----------2---|
D|--------------------0-----------------|
A|-0---------0--------------------------|
E|--------------------------------------|
e|-0---0-----0----3---2----2--0--2------|
B|-1---1--3--1----1---3----3-----3---3--|
G|---2---------2----2----2---------2----|
D|--------------------0----------0------|
A|-0---------0--------------------------|
E|--------------------------------------|
e|----------------------------------------|-------------------------------|
B|-1---1--0--1-------0----0-----0----0----|-----------0-------------------|
G|-2---2-----2----2--1----1--2--1----1--1-|-----1-------1---1----2--------|
D|---3----------3-------2----------2------|---2----2------2-----2---------|
A|-------------------2----------2---------|-2------------------0----------|
E|-1---------1----------------------------|-------------------------------|
Suggest correction