Buried Alive solo Tabs by Avenged Sevenfold

 Artist: Avenged Sevenfold
 Nightmare (2010)
Song Title: Buried Alive Solo
No.Track: #4
Tabbed: Mars Sevenfold


+++++++++++++++++++++++++


* I tab this solo because I want making it amazing like 
  crazy sweeping like SYN'S play all time and 
  you will see all this stuff mostly sweeping part ,, 
  So hope you like it guys! No bad comment please! .. 
  and one thing please rate it! Avenged Sevenfold Forever!!



Guitar Tuning: Drop D (D A D G B e)

Legend

p   - Pull off
h   - Hammer on
b   - Bend
[]  - Perfect bend or perfect sound
~   - Vibrato
/   - Slide down
\   - Slide up
==  - Tremolo picking 

+++++++++++++++++++++++++

PRE-SOLO

 Guitar 1:

e|-----------------------------------------------------|
B|------------15-17\13~--10-15\10~-------------13-15~--|
G|--/17-17-17----------------------12-16-16-16---------| x2
D|-----------------------------------------------------|
A|-----------------------------------------------------|
D|-----------------------------------------------------|

e|-----------------------------------------------------|
B|--/10-10-10-12-13\8~--5/10-----------------10-12~----|
G|---------------------------10~-9--12-12-12-----------| x2
D|-----------------------------------------------------|
A|-----------------------------------------------------|
D|-----------------------------------------------------|

+++++++++++++++++++++++++

SOLO A

 Guitar 1:

e|-17h----17h----17h----17h----17h-------15h----15h----15h----15h----15h--------|
B|----17-----17-----17-----17-----17--------17-----17-----17-----17-----17p13---|
G|------17-----17-----17-----17-----17p14-----17-----17-----17-----17--------14-| 
D|------------------------------------------------------------------------------|
A|------------------------------------------------------------------------------|
D|------------------------------------------------------------------------------|

e|-17h----17h----17h----17h----17h-------15h----15h----15h----15h----15h--------|
B|----18-----18-----18-----18-----18p15-----15-----15-----15-----15-----15p12---|
G|------19-----19-----19-----19--------14-----16-----16-----16-----16--------12-|
D|------------------------------------------------------------------------------|
A|------------------------------------------------------------------------------|
D|------------------------------------------------------------------------------|

e|-17h----17h----17h----17h----17h-------15h----15h----15h----15h----15h--------|
B|----17-----17-----17-----17-----17--------17-----17-----17-----17-----17p13---|
G|------17-----17-----17-----17-----17p14-----17-----17-----17-----17--------14-|
D|------------------------------------------------------------------------------|
A|------------------------------------------------------------------------------|
D|------------------------------------------------------------------------------|
                                                                                     
e|-17h----17h----17h----17h----17h-------|---------------------------20-------------19b[20]-|
B|----18-----18-----18-----18-----18-----|-21-22-21-20-21-22-21-20-24--24-22------17--------|
G|------19-----19-----19-----19-----19---|--------------------------------------17----------|
D|------------------------------------19-|------------------------------------19------------|
A|---------------------------------------|----------------------------------19--------------|
D|---------------------------------------|--------------------------------------------------|

 
 Guitar 2: 

e|-12h----12h----12h----12h----12h------12h----12h----12h----12h----12h-------|
B|----13-----13-----13-----13-----13p10----13-----13-----13-----13-----13-----|
G|------14-----14-----14-----14--------9-----12-----12-----12-----12-----12---|
D|-------------------------------------------------------------------------14-|
A|-----------------------------
(Visited 1 times, 1 visits today)

Comments are closed.