Buster Voodoo Tab by Rodrigo Y Gabriela

This is by far the most daunting task I've ever put upon myself. I've been working on
song for hours and I'm only at about 1 minute. I'll keep on adding to this as I get it. I
you enjoy it, its a fun song!
Intro: Gabriela
E|---------------------------------------------|---------------------------------------------|
B|---------------------------------------------|---------------------------------------------|
G|---------------------------------------------|-----------------------------77----77----9-9-|
D|-----9--xx--------------------9----xx--------|-----9--xx----------------xx-77-xx-77-xx-9-9-|
A|-----0--xx------7h8p7---------0----xx--------|-----0--xx------7h8p7-----xx-00-xx-00-xx-0-0-|
E|-7-7----xx-7-10-0*----10--7-7---55-xx--5-5h7-|-7-7----xx-7-10-0*----10--xx----xx----xx-----|
Every other time, Gabriela plays her crazy, fast, muted thing as a substitute for the very
end part
Intro: Rodrigo
E|------------------------------------------------------------------------------|
B|-------------5-6-5------------------------------------------------------------|
G|-----/7-6--7-------7----------------------------------------------------------|
D|---4----------------7/9--------7-------7-9----7-9-----------------------------|
A|-2-------------------------7h9-----7h9------9-----9~-5-7-9--------------------|
E|-------------------------7-------7-------------------------7~-5-5-5-5-5-5-6-7-|
0:32 Riff 2: Rodrigo
E|----------------------|---1st Ending-----------|---2nd Ending---|
B|----------------------|------------------------|----------------|
G|----------------------|------------------------|----------------|
D|----------------------|------------------------|-4444-4444-44-0-|
A|-------5-------5------|-------5---8-7h8p7------|-4444-4444-44-0-|
E|-7-5h7---0-3/5---7--5-|-7-5h7---0*--------10-5-|-2222-2222-22-0-|
After that entire part is played once, another lead guitar comes in and plays the same 
an octave higher, and
at the 2nd ending the chords are played straight, without rhythmic breaks.
That's all I've got for now. Please feel free to send any comments or corrections
to hildesaw88