Cherry chords by Lana Del Rey

[Verse 1]
G#m                     B6/G                    B6/F#                   B6/G
e|--------7-----------7-----------7-----------7-----------7-----------7-----------7-----------7------|
B|------9---9-------9---9-------9---9-------9---9-------9---9-------9---9-------9---9-------9---9----|
G|----8-------8---8-------8---8-------8---8-------8---8-------8---8-------8---8-------8---8-------8--|
D|--6-----------6-----------5-----------5-----------------------------------5-----------5------------|
A|--------------------------------------------------9-----------9------------------------------------|
E|---------------------------------------------------------------------------------------------------|
G#m                     B6/G                    B6/F#                   F#
e|--------7-----------7-----------7-----------7-----------7-----------7-----------2-----------2------|
B|------9---9-------9---9-------9---9-------9---9-------9---9-------9---9-------2---2-------2---2----|
G|----8-------8---8-------8---8-------8---8-------8---8-------8---8-------8---3-------2---3-------3--|
D|--6-----------6-----------5-----------5-----------------------------------4-----------4------------|
A|--------------------------------------------------9-----------9------------------------------------|
E|---------------------------------------------------------------------------------------------------|
G#m
Darlin'
B6/G
I said real love
B6/F#
It's like feeling no fear when you're standing in the face of danger
B6/G
'Cause you just want it so much
G#m
A touch
B6/G
From your real love
B6/F#
It's like heaven taking the place of something evil
F#
And lettin' it burn off from the rush, yeah, yeah
[Chorus 1]
E
And darlin', darlin', darlin'
G#m                  F#
I fall to pieces when I'm with you
E
I fall to pieces
G#m                F#
My cherries and wine, rosemary and thyme
[Verse 2]
G#m
And all of my beaches are ruined
B6/G
Love I said I need your love
B6/F#
It's like smiling when the firing squad's against you
F#
But you just stay lined up, yeah, yeah
[Chorus 2]
E
'Cause darlin', darlin', darlin'
G#m                  F#
I fall to pieces when I'm with you
E
I fall to pieces
G#m                F#
My cherries and wine, rosemary and thyme
E
And all of my beaches are ruined
G#m                   F#
My rose garden dreams set on fire by fiends
E
And all my black beaches are ruined
G#m                    F#
My celluloid scenes are torn at the seams
E
And I fall to pieces
N.C.
I fall to pieces when I'm with you
[Chorus 3]
G#m                     F#
'Cause I love you so much
E
I fall to pieces
G#m                F#
My cherries and wine, rosemary and thyme
E
And all of my beaches are ruined, are ruined
G#m                       F#
Mmm mm-mm, are ruined
G#m
And I fall to pieces