Want You Back Chords by HAIM

[Verse]
C   G   F
Some things are long forgotten
C   G   F
Some things were never said
C   G   F
We were on one endless road
D5
But I had a wandering heart
[This riff is over the next part of the verse]
|12-------10-------------|------------------------|
|---13-------12----13----|------------------------|
|------12-------12-------|------------------------| x3
|------------------------|------------------------|
|------------------------|------------------------|
|------------------------|------------------------|
C
I said we were opposite lovers
G        F
(Said it from the beginning)
C
You kept trying to prove me wrong
G          F
(Said you’d always see it through)
C   G   F
And I know that I ran you down
D5
So you ran away with your heart
[Chorus]
[This riff is throughout the chorus]
|------------------------|------------------------|
|------------------------|------------------------|
|------------------------|------------------------| x8
|10-12-10-12-10-9/10-10--|9/10-10--(9/10-10)------|
|------------------------|------------------------|
|------------------------|------------------------|
C   F   C
But just know that I want you back
F      G      Am     C   F
Just know that I want you back
Just know that I want you
C                 F                  Am
I’ll take the fall and the fault in us
C                          F
I’ll give you all the love I never gave before I left you
C   F   Am
Just know that I want you back
F
Just know that I want you back
Just know that I want you
C                 F                  Am
I’ll take the fall and the fault in us
C                          F
I’ll give you all the love I never gave before I left you
[Verse]
C   G   F
I know it’s hard to hear it
C   G   F
And it may never be enough
D5
But don’t take it out on me now
F
‘Cause I blame it all on myself
[This riff is over the next part of the verse]
|12-------10-------------|------------------------|
|---13-------12----13----|------------------------|
|------12-------12-------|------------------------| x3
|------------------------|------------------------|
|------------------------|------------------------|
|------------------------|------------------------|
C
And I had a fear of forgiveness
G        F
(Said it from the beginning)
C
I was too proud to say I was wrong
G          F
(Said you’d always see me through)
D5
All that time is gone, no more fearing control
F
I’m ready for the both of us now
[Chorus]
[This riff is throughout the chorus]
|------------------------|------------------------|
|------------------------|------------------------|
|------------------------|------------------------| x8
|10-12-10-12-10-9/10-10--|9/10-10--(9/10-10)------|
|------------------------|------------------------|
|------------------------|------------------------|
C   F   C
So just know that I want you back
F      G      Am     C   F
Just know that I want you back
Just know that I want you
C                 F                  Am
I’ll take the fall and the fault in us
C                          F
I’ll give you all the love I never gave before I left you
F
Just know that I want you back
G
(Just know that I want you)
Em
Just know that I want you back
F
(Just know that I want you)
Just know that I want you
F                                    G
I’ll take the fall and the fault in us
Em
I’ll give you all the love I never gave before I left you
F
(Just know that I want you back, baby)
[Bridge]
F    G
Just know that I want you back
Em   F
Just know that I want you back
Just know that I want you
F                                    G
I’ll take the fall and the fault in us
Em      F
I’ll give you all the love I never gave before I left you
F    G
Just know that I want you back
Am   C
Just know that I want you back
Just know that I want you
F                                    G
I’ll take the fall and the fault in us
Am      C
I’ll give you all the love I never gave before I left you
[Chorus]
[This riff is throughout the chorus and outro]
|------------------------|------------------------|
|------------------------|------------------------|
|------------------------|------------------------| x12
|10-12-10-12-10-9/10-10--|9/10-10---9/10-10-------|
|------------------------|------------------------|
|------------------------|------------------------|
F    G
Just know that I want you back
Em   F
Just know that I want you back
Just know that I want you
F                                    G
I’ll take the fall and the fault in us
Em       F
I’ll give you all the love I never gave before I left you, baby
F
Just know that I want you back
G
(Just know that I want you)
Em
Just know that I want you back
F
(Just know that I want you)
Just know that I want you
F                                    G
I’ll take the fall and the fault in us
Em
I’ll give you all the love I never gave before I left you
F
(Just know that I want you back, baby)
[Outro]
F                G
(Just know that I want you)
Em               F
(Just know that I want you back, baby)
F                                    G
I’ll take the fall and the fault in us
Em       F      C
I’ll give you all the love I never gave before I left you