Cramp Stomp Tabs – The Cramps

 [Intro]
N.C.
e|------------------------------------------|
B|------------------------------------------|
G|------------------------------------------|
D|------------------------------------------|
A|------------------------------------------|
E|------------------------------------------|
Cramp         Stomp!
E
e|------------------------------------------|------------------------------------------|
B|------------------------------------------|------------------------------------------|
G|------------------------------------------|------------------------------------------|
D|--2-2--2-2--2-2--2-2--2-2--2-2--2-2--2-2--|--2-2--2-2--2-2--2-2--2-2--2-2--2-2--2-2--|
A|--2-2--2-2--2-2--2-2--2-2--2-2--2-2--2-2--|--2-2--2-2--2-2--2-2--2-2--2-2--2-2--2-2--|
E|--0-0--3-3--0-0--3-3--0-0--3-3--0-0--3-3--|--0-0--3-3--0-0--3-3--0-0--3-3--0-0--3-3--|
A                                          E
e|------------------------------------------|------------------------------------------|
B|------------------------------------------|------------------------------------------|
G|--2-2--2-2--2-2--2-2--2-2--2-2--2-2--2-2--|------------------------------------------|
D|--2-2--2-2--2-2--2-2--2-2--2-2--2-2--2-2--|--2-2--2-2--2-2--2-2--2-2--2-2--2-2--2-2--|
A|--0-0--3-3--0-0--3-3--0-0--3-3--0-0--3-3--|--2-2--2-2--2-2--2-2--2-2--2-2--2-2--2-2--|
E|------------------------------------------|--0-0--3-3--0-0--3-3--0-0--3-3--0-0--3-3--|
B                    A                     E                    B
e|------------------------------------------|------------------------------------------|
B|------------------------------------------|------------------------------------------|
G|--4-4--4-4--4-4--4-4--2-2--2-2--2-2--2-2--|----------------------4-4--4-4--4-4--4-4--|
D|--4-4--4-4--4-4--4-4--2-2--2-2--2-2--2-2--|--2-2--2-2--2-2--2-2--4-4--4-4--4-4--4-4--|
A|--2-2--2-2--2-2--2-2--0-0--0-0--0-0--0-0--|--2-2--2-2--2-2--2-2--2-2--2-2--2-2--2-2--|
E|------------------------------------------|--0-0--3-3--0-0--3-3----------------------|
[Verse 1]
E                                G         E                                G
e|--0--------------------------------3-3-3--|--0--------------------------------3-3-3--|
B|--0--------------------------------0-0-0--|--0--------------------------------0-0-0--|
G|--1--------------------------------0-0-0--|--1--------------------------------0-0-0--|
D|--2--------------------------------0-0-0--|--2--------------------------------0-0-0--|
A|--2--------------------------------2-2-2--|--2--------------------------------2-2-2--|
E|--0--------------------------------3-3-3--|--0--------------------------------3-3-3--|
Come on baby it's the Cramp Stomp          Come on baby it's the Cramp Stomp
A                                G         E                                E
e|--0--------------------------------3-3-3--|--0--------------------------------0-0-0--|
B|--2--------------------------------0-0-0--|--0--------------------------------0-0-0--|
G|--2--------------------------------0-0-0--|--1--------------------------------1-1-1--|
D|--2--------------------------------0-0-0--|--2--------------------------------2-2-2--|
A|--0--------------------------------2-2-2--|--2--------------------------------2-2-2--|
E|-----------------------------------3-3-3--|--0--------------------------------0-0-0--|
Get ya high as King Kong's twat            Come on baby it's the Cramp Stomp
B                  A             A         E                   B                    
e|---------------------0-------------0-0-0--|--0---------------------------------------|
B|---------------------2-------------2-2-2--|--0---------------------------------------|
G|--4-----------4-4-4--2-------------2-2-2--|--1-------------------4-4--4-4--4-4--4-4--|
D|--4-----------4-4-4--2-------------2-2-2--|--2-------------------4-4--4-4--4-4--4-4--|
A|--2-----------2-2-2--0-------------0-0-0--|--2-------------------2-2--2-2--2-2--2-2-