Dead End Friends Tab by Them Crooked Vultures

Unfinished at the moment, just running through the tracks
Tuning: Standard but album tuning is probably drop-d
Intro:
e|--------------------------------------------|
B|--------------------------------------------|
G|-18-18-18-14-17-17-17-----------------------|
D|-x--x--x--x--x--x--x------------------------|x4
A|-16-16-16-12-15-15-15-9-11-11-11-9-11-11-11-|
E|----------------------7-9--9--9--7-9--9--9--|
Verse:(Different ending for second part but may just be on second guitar)
e|----------------------------------------|
B|----------------------------------------|
G|----------------------------------------|
D|-11--11-9-11--11-9-11--11-9-11-12-12-12-|x2
A|-9---9--7-9---9--7-9---9--7-9--10-10-10-|
E|----------------------------------------|
e|------------------------------|
B|------------------------------|
G|------------------------------|
D|------------------------------|x2
A|-6--6-4-6--6-4-6--6-4-6-7-7-7-|
E|-4--4-2-4--4-2-4--4-2-4-5-5-5-|
Fill Riff:
e|----------------------------|
B|----------------------------|
G|-13--13-9-------------------|
D|----------11--11-9-11-9-----|
A|------------------------11/-|
E|----------------------------|