Delbert Mcclinton – Too Much Stuff Chords

Standard tuning, no capo. Key of G. There's a piano intro before this. 
This is all our own work. My guitar teacher Patrick (great guy), 
figured most of this out, I only made a few minor changes. There are 
some little licks at the end that I am still figuring out, but I will 
post them as soon as I do. These are the chords used throughout the 
song. The verse uses the standard 1-4-5 12-bar blues with the 5th of 
the 5th. The chorus does some wacky 4-4-1-1-5/5-5-1-1 progression. If you 
have a comment, e-mail me at stillfunny2u.
The song uses these chords:

 G                 G (alt.)          G (chorus)
E-----------------|-----------------|-----------------|
B-----------------|-----------------|-----------------|
G-----------------|-----------------|-----------------|
D---------0-0-----|---------0-0-2-0-|---------0-------|
A-----1/2-----2-2-|-----1/2---------|-----2-------2---|
E-3-3-------------|-3-3-------------|-3---------------|

 C                 C (alt.)          C (chorus)
E-----------------|-----------------|-----------------|
B-----------------|-----------------|-----------------|
G---------0-0-----|---------0-0-2-0-|-----------------|
D-----1/2-----2-2-|-----1/2---------|-----------------|
A-3-3-------------|-3-3-------------|-----------------|
E-----------------|-----------------|-----------------|

 A                 D                  A (chorus)
E-----------------|-----------------|-----------------|
B-----------------|-----------------|-----------------|
D-----------------|-----------------|-----------------|
G-----------------|-0---2---3---4---|---------2-------|
A-0---2---3---4---|-----------------|-0---4-------4---|
E-----------------|-----------------|-----------------|

Guitar Solo:
 G
E------------------------------------------3-5-3-------6-3-----3------|
B-------3--------3-----3------3------3-6-6-------6-3-------6-3---6p3--|
D-5/7------5/7-----5/7---5/7----5/7------------------5----------------|
G---------------------------------------------------------------------|
A---------------------------------------------------------------------|
E---------------------------------------------------------------------|
 C                            G
E-6b7---3---3-------------------------------3-6b7--3---------------3--|
B---------6------------6----------3-5---3-5----------------------5----|
D----------------5-5/7------3-3h4-------------------------------------|
G---------------------------------------------------------------------|
A---------------------------------------------------------------------|
E---------------------------------------------------------------------|

 A                 D                    G
E-6-6-3---3-3-----|------6-------------|-5-------------------------|
B-------6-----6-3-|--5/7---7/5-3-5-3---|----6-3--------------------|
D-----------------|------------------5-|--------5-3---5-3----------|
G-----------------|--------------------|------------5-----5--------|
A-----------------|--------------------|--------------------5------|
E-----------------|--------------------|---------------------------|


Lyrics:

G
Big house, big car,
G
back seat, full bar.
G
Houseboat won't float.
G
The bank wont tote the note.
C              C (alt.)             
Too much stuff. Woo! 
          G (alt.)            G (alt.)
It's just too much stuff.
A                  D                      G (alt.) G (alt.)        
It'll hang you up, dealing with too much stuff.

G (alt.) 
Hangin' out on the couch, 
G (alt.) 
puttin' on the pounds.
G (alt.) 
Better walk, run, jump, swim.
G (alt.) 
Try to hold it down.
C (alt.)              C
Eatin' too much stuff.
G (alt.)            G (alt.) 
Too much stuff
A
It'll wear you down,
D                              G (alt.) G (alt.)
carryin' around too much stuff.

G (alt.) 
Hundred dollar cab ride,
G (alt.)
Fogged in cant fly.
G (alt.)
Greyhound, Amtrak
G(alt.)
Oughta b
(Visited 1 times, 1 visits today)

Comments are closed.