Desperado intro Tabs – Mac Miller

 -------------------------------------------------------------------------------
                             Desperado (Intro) - Mac Miller
-------------------------------------------------------------------------------
Tabbed by: Zach P

Tuning: Drop D (DADGBe)

e|-----------------------------------------------------------------------|
B|----9-11/14--12h14h16--16p14p12-11---11h12-14-12-12p11p9--7-7h9p7\6----|
G|--8-----------------------------------------------------------------8--|
D|-----------------------------------------------------------------------|
A|-----------------------------------------------------------------------|
D|-----------------------------------------------------------------------|

e|-----------------------------------------------------------------------|
B|-----------------------------------------------------------------------|
G|-----------------------------------------------------------------------|
D|--4h6------------------------------------------------------------------|
A|-------4h6--2h4--1h2p1-------------------------------------------------|
D|------------------------6--4--0----------------------------------------|



************************************

| /   slide up
| \   slide down
| h   hammer-on
| p   pull-off
| ~   vibrato
| +   harmonic
| x   Mute note
| b   Bend
| pb  Pre-bend
| br  Bend release
| pbr Pre-bend release
| brb Bend release bend

************************************
(Visited 1 times, 1 visits today)

Comments are closed.