Destructive Signs Tabs – Flotsam and Jetsam

 -------------------------------------------------------------------------------
Destructive Signs - Flotsam and Jetsam
-------------------------------------------------------------------------------
:kevinbrafford
kevinbrafford
Tuning: EADGBE (Standard)
I've included track times to help you follow since the whole thing cannot just be followed in order obviously 
with repeats that are not shown...you must listen to it, but the parts are shown below.  Enjoy!  
Intro and verses 10x  
d   u d u d   d u d u  u   :33(strum chords on C and C#)
e|-----0-0-0-2------pm-0--0-|------------------------------------|
B|-----0-0-0-0---3-3-3-3--0-|-1---2----3333----------------------|
G|-0---0-0-0-0---2-2-2-2----|-0---1----0000----------------------|
D|-2-------------0-0-0------|-2---3----0000----------------------|
A|-2------------------------|-3---4------------------------------|
E|-0------------------------|----------3333-5-0------------------|
1:07    P.M-----    PM                     PM
e|---------------------------------------------------------------|
B|---------------------------------------------------------------|
G|-5---6----------------------------------------------7-7\5--5---|
D|-5---6------------2-----5---4---2------555-7---2----7-7\5--5---|
A|-3---4------------2-----5---4---2------555-7---2----5-5\3--3---|
E|---------3333-5-0-0---0-3---2---0------333-5-0-0---------------|
PM               1:35 (Acoustic lick)
e|---------------------------------------------------------------|
B|-----------------------------------------------------12--------|
G|-(5)----------5-5/7-7---------------------------11-12----------|
D|-(5)----------5-5/7-7---2---(2)---------11-12-14---------------|
A|-(3)----------3-3/5-5---2---(2)-------14-----------------------|
E|----------------------0-0---(0)--------------------------------|
e|--------------12-----------------------------------------------|
B|-15-13-12------------------------------------------------------|
G|---------------------------------------------------------------|
D|---------------------------------------------------------------|
A|---------------------------------------------------------------|
E|---------------------------------------------------------------|
2nd Chorus Ending     2:31(solo rhythm)¼ bends(subtle)
e|---------------------------------------------------------------|
B|---------------------------------------------------------------|
G|-(5)----------5-5/7-5-4-4-----------5--------------------------|
D|-(5)----------5-5/7-5-4-4-----7-----5--------------------------|
A|-(3)----------3-3/5-3-2-2-----7---0-3--------------------------|
E|------------------------------5----------3b-2b-0---------------|
e|---------------------------------------------------3-----------|
B|---------------------------------------------------3-----------|
G|-4---------5--------------------------------------00--2--------|
D|-4----7----5----------2----------2----------2-----00--2--2-----|
A|-2----7----3----------2----------2----------2---------0--2-----|
E|------5---------3b-2b-0----3b-2b-0----3b-2b-0-----33-----0-----|
2:33 Acoustic Solo
e|------------------------------------7--------------------------|
B|-----------------------7-----------x--10-8-7-------------------|
G|-9-7-9\7-7-----7-----9---7-9------x---------9p7----------------|
D|-----------7h9---7---------------x-------------9h10p9p7h9------|
A|---------------------------------------------------------------|
E|---------------------------------------------------------------|
e|---------------------------------------------------------------|
B|---------------------------------------------------------------|
G|--------9----9h11h12p11p9-11~~~----------11-12-11--------------|
D|-9h11h12---12-------------------14-12-14----------14\12-14-----|
A|---------------------------------------------------------------|
E|-----------------------------