Digimon – Shouri (Zen No Theme) Tabs

e|----------0-1-0-------0-----------------------0-1-0-------0---2--
B|--1---3---------3-1-3---1---0-------0-1---3---------3-1-3---1---3
G|----0---0-----------------2---2-0-2-----0---0--------------------

e|--3-3-3---4-3-1---3---6-4-3---------6-4-3-1-------1-----
B|----------------4---4-------4-1-0-3---------4-3-4---3-4-
G|--------3-----------------------------------------------

e|----------------------1-3---8-7-5-2-5-3---------0-1-0-------0----
B|--------1-3-3-------4-----3-------------1---3---------3-1-3---1--
G|--0-1-3-------0-1-3-----------------------0---0-----------------2

e|--------------------0-1-0-------0---2---3-3-3
B|--0-------0-1---3---------3-1-3---1---3------
G|----2-0-2-----0---0--------------------------
(Visited 1 times, 63 visits today)

Comments are closed.