Djakninn intro Tabs – Sólstafir

 -------------------------------------------------------------------------------
                             Djákninn - Sólstafir
-------------------------------------------------------------------------------
: Viktor H. Gizurarson
 viktorgizurarson

Tuning: E A D G B e

| /    slide up
| \    slide down
| h    hammer-on
| p    pull-off
| ~    vibrato


If you believe there is something wrong about the tabs then comment down below.
The song is actually played with two guitars; however, this version will only have one. 
I am sure it's about 99% correct
Hope you like it.


Here is the song: https://www.youtube.com/watch?v=uZhf98IydQ0

*4*Play Four Times*4*
e|-------------------------------------------|
B|-------------------------------------------|
G|-----5---2h4p2-----------1---1p0-----------|
D|---5---5-------5~------2---2-----2---------|
A|-0---------------------------------2h3-0---|
E|---------------------1---------------------|

e|-----------------|-------------------------|
B|-4/5\4---3-------|-------------------------|
G|-5/6\5---4-4-----|-----0-1-----0/1\0-------|
D|-5/6\5---5-5-5---|-------------------0-----|
A|-------3-------5-|-0-1-----5-4-------------|
E|-----------------|-------------------------|

e|-----------------------------|--------------------------------|
B|---------------------3-------|--------------------------------|
G|---5/7-10-9\7-9-7----4-4-----|-----0-1----0/1-2b-2b-2b-2~-----|
D|---5/7-10-9\7-9-7----5-5-5---|--------------------------------|
A|-5-----------------3-------5-|-0-1-----5-4--------------------|
E|-----------------------------|--------------------------------|


e|----------------------------------|----------------------------------------|
B|----------------------------------|----------------------------------------|
G|-----5---2h4p2---------1---1p0----|-------5---2h4p2---------1---1p0--------|
D|---5---5-------5~----2---2-----2~-|---5-5---5-------5~----2---2-----2------|
A|-5--------------------------------|-0--------------------------------------|
E|-------------------1--------------|---------------------1------------------|

*2*Play Two Times*2*
e|------------------------------------|
B|------------------------------------|
G|-----5---2h4p2---------1---1p0------|
D|---5---5-------5~----2---2-----2~---|
A|-0----------------------------------|
E|-------------------1----------------|


*2*Play Two Times*2*
e|------------------------------------------|
B|----4/5\4---3-----------------------------|
G|----5/6\5---4-4----------0-1-----0/1\0----|
D|----5/6\5---5-5-5----------------------0--|
A|-5--------3-------5--0-1-----5-4----------|
E|------------------------------------------|

e|--------------------------------------------------|
B|----4/5\4---3-------------------------------------|
G|----5/6\5---4-4----------0-1-----0/1-2b-2b-2b-2b~-|
D|----5/6\5---5-5-5---------------------------------|
A|-5--------3-------5--0-1-----5-4------------------|
E|--------------------------------------------------|

e|--------------------|----------------------------------------------|
B|----4/5\4---3-------|----------5-5-5--4-4-4---5-5-5--4-4-4---------|
G|----5/6\5---4-4-----|-----0-1--7-7-7--6-6-6---7-7-7--6-6-6---------|
D|----5/6\5---5-5-5---|----------7-7-7--6-6-6---7-7-7--6-6-6---------|
A|-5--------3-------5-|-0-1------5-5-5--4-4-4---5-5-5--4-4-4---------|
E|--------------------|----------------------------------------------|


e|-----------------|----------------------------------|-----------------|
B|-8---------------|----------------------------------|-5-5-5--4-4-4----|
G|-8------11----12-|-------5--------------4-----------|-7-7-7--6-6-6----|
D|-8-8-10----12----|---5-6---9-7------4-5---7-5-------|-7-7-7--6-6-6----|
A|-----------------|----------------------------------|-5-5-5--4-4-4----|
E|-----------------|-1------------0-1-----------------|-----------------|

e|-----------------|----------------------------------|-----------------|
B|-8---------------|----------
(Visited 1 times, 1 visits today)

Comments are closed.