Dont Wont Cant Tabs – Biffy Clyro

 Biffy Clyro – Don’t, Won’t, Can’t
Ellipsis
Tuning: Drop C#
[Intro]
D#|-----------------------
A#|--15-15-15----11-11-13-
F#|--15-15-15----10-10-12-
C#|-/17-17-17----12-12-14-
G#|-----------------------
C#|-----------------------
[Verse]
D#|------------------------------------------------------
A#|-10-10-8--10-10-10-8--10-11-11-13-10------10-10-8--10-
F#|-10-10-9--10-10-10-9--10-10-10-12-10------10-10-9--10-
C#|-12-12-10-12-12-12-10-12-12-12-14-12------12-12-10-12-       x2
G#|------------------------------------------------------
C#|-------------------------------------12\0-------------
[Pre-Chorus]
D#|-------------------------
A#|-15-15-15-15-11-11-13-13-
F#|-15-15-15-15-10-10-12-12-
C#|-17-17-17-17-12-12-14-14-    x2
G#|-------------------------
C#|-------------------------
[Pre-Chorus] (Extra):
D#|-------------
A#|-15/18-17-15-
F#|-------------
C#|-------------
G#|-------------
C#|-------------
[Chorus]
D#|-------------------------------------------------
A#|-10-10-10-10-13-13-13-13-11-11-11-11-11-11-8--8--
F#|-10-10-10-10-14-14-12-12-10-10-10-10-12-12-9--9--
C#|-12-12-12-12-15-15-14-14-12-12-12-12-12-12-10-10-
G#|-------------------------------------------------
C#|-------------------------------------------------
[Chorus] (Extra):
D#|--------------------------------------------------------------
A#|--------------------------------------------------------------
F#|--------------------------------------------------------------
C#|-----5-7-5-----------5-7-5-----------5-7-5-----------5-7-8-7v-       x2 
G#|-5-8-------8-7-5-7-8-------8-7-5-7-8-------8-7-5-7-8----------
C#|--------------------------------------------------------------
[Bridge]
D#|-------------------------------------
A#|-10-10-8--10-10-10-8--10-11-11-13-10-
F#|-10-10-9--10-10-10-9--10-10-10-12-10-
C#|-12-12-10-12-12-12-10-12-12-12-14-12-        
G#|-------------------------------------
C#|-------------------------------------
D#|-----------------------------------------------
A#|-----------------------------------------------
F#|-----------------------------------------------
C#|-----------------------------------------------
G#|-12-0----12----0-0-12----0-0----15-15-15-15-15-
C#|-12-0----12----0-0-12----0-0----15-15-15-15-15-
[Verse]
D#|------------------------------------------------------
A#|-10-10-8--10-10-10-8--10-11-11-13-10------10-10-8--10-
F#|-10-10-9--10-10-10-9--10-10-10-12-10------10-10-9--10-
C#|-12-12-10-12-12-12-10-12-12-12-14-12------12-12-10-12-       
G#|------------------------------------------------------
C#|-------------------------------------12\0-------------
[Pre-Chorus] (Extra):
D#|-------------
A#|-15/18-17-15-
F#|-------------
C#|-------------
G#|-------------
C#|-------------
[Chorus]
D#|-------------------------------------------------
A#|-10-10-10-10-13-13-13-13-11-11-11-11-11-11-13-13-
F#|-10-10-10-10-14-14-12-12-10-10-10-10-10-10-12-12-
C#|-12-12-12-12-15-15-14-14-12-12-12-12-12-12-14-14-
G#|-------------------------------------------------
C#|-------------------------------------------------
D#|-------------------------------------------------
A#|-10-10-10-10-13-13-13-13-11-11-11-11-11-11-8--8--
F#|-10-10-10-10-14-14-12-12-10-10-10-10-12-12-9--9--
C#|-12-12-12-12-15-15-14-14-12-12-12-12-12-12-10-10-
G#|-------------------------------------------------
C#|-------------------------------------------------
[Chorus] (Extra):
D#|--------------------------------------------------------------
A#|--------------------------------------------------------------
F#|--------------------------------------------------------------
C#|-----5-7-5-----------5-7-5-----------5-7-5-----------5-7-8-7v-       x4 
G#|-5-8-------8-7-5-7-8-------8-7-5-7-8-------8-7-5-7-8----------
C#|--------------------------------------------------------------
[Interlude]
D#|---------------------------------------------------
A#|---------------------------------------------------
F#|---10---9/12-------9-12-7------10---9