El Paso intro Tabs – Marty Robins

 Difficulty
intermediate
Play This Twice
1--------------------------------------------------------------------------|
2--------------------------------------------------------------------------|
3-----------0----------------2---------------------------------------------|
4-------2-------2-------00-3---3-------0--3-2-0-3-2-0----------------------|
5---33--------------3----------------2-----------------3-------------------|
6----------------------------------3---------------------------------------|
_
1-------------------------------------------0--------------------------------|
2----------------------------------------1-----3-1-----------1-1--1----------|
3----------2--2-3-2-0----------2-3-2-3-------------3-----0-------3--3-0------|
4-------3-------------3-----3--------------------------2-----------------2---|
5---33-------------------3---------------------------3---------------------3-|
6----------------------------------------------------------------------------|
_
1---------------------------------------------------------------------------|
2---------------------------------------------------------------------------|
3--------0--3-2-0-3-2-0------------0----------------------------------------|
4-----2------------------3---2-3------3-0-----------------------------------|
5--3-------------------------------------------3----------------------------|
6---------------------------------------------------------------------------|