End Of Me Tabs – A Day To Remember Vsion 4

 Intro-Verse (Clean Guitar)
E----------------------------------------------------------------------------------------------------
B--3-----3-------------------------------------------------------------------------------------------
G----4-2---4--2---2-2----1---2-1---1---2-1-----------------------------------------------------------
D---------------4-----4----2-----2---2-----2---------------------------------------------------------
A--2-------------------------------------------------------------------------------------------------
E-------------2----------0---------------------------------------------------------------------------(6x)



Chorus (1st Guitar)
E----------------------------------------------------------------------------------------------------
B----------------------------------------------------------------------------------------------------
G----------------------------------------------------------------------------------------------------
D--4444--4444--2222----------------------------------------------------------------------------------
A--2222--4444--2222----------------------------------------------------------------------------------
E--2222--2222--0000----------------------------------------------------------------------------------(3x)


Chorus (2nd Guitar)
E-------------------------------------------------------------------------------------------------------
B-------------------------------------------------------------------------------------------------------
G--16-16-14-14-13-14/14---------------------------------------------------------------------------------
D-------------------------------------------------------------------------------------------------------
A--14-14-12-12-11-11/12---------------------------------------------------------------------------------
E-------------------------------------------------------------------------------------------------------(3x)




Oh, You'll be the end of me...(2nd Verse) (1st guitar) Clean Guitar
E----------------------------------------------------------------------------------------------------
B--3-----3-------------------------------------------------------------------------------------------
G----4-2---4--2---2-2----1---2-1---1---2-1-----------------------------------------------------------
D---------------4-----4----2-----2---2-----2---------------------------------------------------------
A--2-------------------------------------------------------------------------------------------------
E-------------2----------0---------------------------------------------------------------------------



Solo-2nd Verse   (2nd Guitar)   (Delay)                                                              Pre Chorus
E-----------------------------------------------------------------------------------------------------
B-----------------------------------------------------------------------------------------------------
G--6/7-9-7-6-11-9-9-----------------------------------------------------------------------------------     
D-------------------11-9----------------------------------------------------------2-------------------
A---------------------------------------------------------------------------------2--------------------
E---------------------------------------------------------------------------------0--------------------(4x)


Chorus (1st Guitar)
E----------------------------------------------------------------------------------------------------
B----------------------------------------------------------------------------------------------------
G----------------------------------------------------------------------------------------------------
D--4444--4444--2222----------------------------------------------------------------------------------
A--2222--4444--2222----------------------------------------------------------------------------------
E--2222--2222--0000---------------------------------------------------------------------------

Comments are closed.