Everglow chords – Coldplay V2

 Arranged for guitar by Paul Davids
Capo fret 4
         
[INTRO] 
/Piano arranged for guitar (or just strum the chords)\

                           Am F C Em7 
|-----------------------|-----8--7--5-----3--------|--0--3--0----------------|
|-----------------------|--5-------------------1-3-|--1--------3---------1-3-|
|-------------------5-7-|--5--------5-----5--------|-----------0-------------|
|-----------------------|-----------3--------------|-----------2-------------|
|-----------------------|--0-----------------------|--3----------------------|
|-----------------------|--------------------------|-----------0-------------|


  Am F C G Am F     
--0-----------------------|-------0-------------------|-----8--7--5-----3--------|
-----3--1-----------------|--1--3------3--------------|--5-------------------1-3-|
-----------2-----0--------|--0---------0----------5-7-|--5--------5-----5--------|
--------------------------|---------------------------|-----------3--------------|
--0-----------------------|--3------------------------|--0-----------------------|
-----------1----------(3)-|------------3--------------|--------------------------|


   C Em7 Am F Gsus4 G 
--0--3--0----------------|--0-----------------------|--------------------------|
--1--------3---------1-3-|-----3--1-----------------|--1-------------------1-3-|
-----------0-------------|-----------2-----0-----0--|------0-------------------|
-----------2-------------|--------------------3-----|--0-----0-----------------|
--3----------------------|--0-----------------------|-------------2------------|
-----------0-------------|-----------1--------------|--3-----------------------|


   Am F G                               
--0----------------------|------------------------------|
-----3--1----------------|----1--3-3---1-0--------------|
-----------2-----0-------|----0----0-----0--------------|
-------------------------|------------------------------|
--0----------------------|------------------------------|
-----------1-------------|----3----3-----3--------------|

 

[VERSE 1]
           Am F 
Well they say people come
 C Em7 
Say people go
         Am F C G 
This particular diamond is extra special

        Am F  
I know you might be gone, 
          C Em7 
and the world may not know
         Am F Gsus4 G 
Still I see you celestial

[BIDGE]
|:    Am F       |    C G     :| 2x

[VERSE2]
        Am F 
Like a lion you ran
 C Em7 
God his hero
         Am F 
Like an eagle you circle
 C G 
Perfect of all

    Am F 
So how come things move on?
     C Em7 
How come cars don't slow?
 Am F Gsus4 G 
When it feels like the end of my world
        Am F Gsus4 G 
When I should but I can't let you go


[CHORUS 1]
               Am F C Em7 
But when I'm cold,        coooohoohooold
    Am F C G 
When I'm cold,    cooohooohooold
           Am F 
There's a light that you give me
      C Em7 
When I'm in shadows
          Am F G         
There's a feeling of ever, everglow


[BIDGE 2]
|:    Am F       |    <sp

Comments are closed.