Fear Tab by Creed

Tuning  Drop B (B F# B E G# C#)
Song Order:
Intro Riff
Verse 1
Chorus 1
Intro Riff
Verse 2
Chorus 2
Bridge Clean
Bridge Distorted
Chorus 3 Clean
Chorus 4
Outro Riff
Intro Riff - (*PH is same with a pinch harmonic, pm is same with palm mute)
C#|------------------------------|-----------------------------|
G#|------------------------------|-----------------------------|
E|------------------------------|-----------------------------|
B|----------------3-------------|----------------3-----3h5~---| 
F#|------3-----3h5---5--5*PH-----|------3-----3h5---5-5--------|
B|--3h5---0-0-------------------|--3h5---0-0------------------|
C#|------------------------------|--------------------------------|
G#|------------------------------|--------------------------------|
E|------------------------------|--------------------------------|
B|----------------3-------------|--------------------------------| 
F#|------3-----3h5---5--5*PH-----|---5---3------3------3----------|
B|--3h5---0-0-------------------|-5---5---5--5---5-3----5-3-3-2--|
Verse 1
C#|-------------------------------------------|----------------------------|
G#|-------------------------------------------|----------------------------|
E|-------------------------------------------|----------------------------|
B|-------------------------------------------|----------------------------| 
F#|--0-0--------3---0-------3---0-0--3*-------|--0-0--------3---0----------|
B|--0-0--3h5p3---0-0-3h5p3---0-0-0------3*---|--0-0--3h5p3---0-0----------|
C#|-------------------------------|
G#|-------------------------------|
E|-------------------------------|
B|-------------------------------| 
F#|----5---3-----3-----3----------|
B|--5---5---5-5---5-3---5-3-3-2--|
C#|-------------------------------------------|----------------------------|
G#|-------------------------------------------|----------------------------|
E|-------------------------------------------|----------------------------|
B|-------------------------------------------|----------------------------| 
F#|--0-0--------3---0-------3--0-0-3*PH-------|--0-0--------3---0----------|
B|--0-0--3h5p3---0-0-3h5p3--0-0-0------3*PH--|--0-0--3h5p3---0-0----------|
C#|-------------------------------|
G#|-------------------------------|
E|-------------------------------|
B|-------------------------------| 
F#|----5---3-----3-----3----------|
B|--5---5---5-5---5-3---5-3-3-2--|
C#|-----------------------------------|------------------------------------|
G#|-----------------------------------|------------------------------------|
E|---7---7------5--5-5-5-5/7--7-7-7--|------------------------------------|
B|-5-5---5----3-3--3-3-3-3/5--5-5-5--|------------------------------------| 
F#|-5-5-5-5--0-3-3--3-3-3-3/5--5-5-5--|-0-0--------3---0-------3---0--3*---|
B|-5-5-5-5--0-3-3--3-3-3-3/5--5-5-5--|-0-0--3h5p3---0-0-3h5p3---0-0-----3*|
C#|-----------------------------------|
G#|-----------------------------------|
E|---7---7----5----------------------|
B|-5-5---5----3----------------------| 
F#|-5-5-5-5--0-3----------------------|
B|-5-5-5-5--0-3------5/15\3----------|
Chorus 1
C#|---------------------------------------|-----------------------------|
G#|-----3-3-------------------------------|-----------------------------|
E|-----2-2-------12-12-------10-10-------|-----------------------------|
B|--0--0-0-------10-10-------8--8--------|------------5-0-3-0----------| 
F#|--0--0-0--0-0--10-10--0-0--8--8--------|--0-0-3-2-0-5-0-3-0----------|
B|--0--0-0--0-0--10-10--0-0--8--8--------|--0-0-3-2-0-5-0-3-0----------|
C#|---------------------------------------|-----------------------------|
G#|-----3-3-------------------------------|-----------------------------|
E|-----2-2-------12-12-------10-10-------|-----------------------------|
B|--0--0-0-------10-10-------8--8--------|------------5-0-3-0----------| 
F#|--0--0-0--0-0--10-10--0-0--8--8--------|--0-0-3-0-0-5-0-3-0----------|
B|--0--0-0--0-0--10-10--0-0--8--8--------|--0-0-3-0-0-5-0-3-0----------|
C#|---------------------------------------|-----------------------------|
G#|-----3-3-------------------------------|-----------------------------|
E|-----2-2-------12-12-------10-10-------|-----------------------------|
B|--0--0-0-------10-10-------8--8--------|-----------------------------| 
F#|--0--0-0--0-0--10-10--0-0--8--8--------|-----------------------------|
B|--0--0-0--0-0--10-10--0-0--8--8--------|--0-0-5-3-0-5~-0-3-0---------|
C#|------------------------------------|-----------------------------------|
G#|-----3-3----------------------------|-----------------------------------|
E|-----2-2-------12-12-------10-10----|-----------------------------------|
B|--0--0-0-------10-10-------8--8-----|------------5-0-3-0-7~-------------| 
F#|--0--0-0--0-0--10-10--0-0--8--8-----|--0-0-3-0-0-5-0-3-0-7~-------------|
B|--0--0-0--0-0--10-10--0-0--8--8-----|--0-0-3-0-0-5-0-3-0-7~-----7/15\5--|
Intro Riff
C#|------------------------------|-----------------------------|
G#|------------------------------|-----------------------------|
E|------------------------------|-----------------------------|
B|----------------3-------------|----------------3-----3h5~---| 
F#|------3-----3h5---5--5*PH-----|------3-----3h5---5-5--------|
B|--3h5---0-0-------------------|--3h5---0-0------------------|
C#|------------------------------|-----------------------------|
G#|------------------------------|-----------------------------|
E|------------------------------|-----------------------------|
B|----------------3-------------|-----------------------------| 
F#|------3-----3h5---5--5*PH-----|---5---3-----3-----3---------|
B|--3h5---0-0-------------------|-5---5---5-5---5-3---5-3-3-2-|
Verse 2
C#|-------------------------------------------|----------------------------|
G#|-------------------------------------------|----------------------------|
E|-------------------------------------------|----------------------------|
B|-------------------------------------------|----------------------------| 
F#|--0-0--------3---0-------3---0-0--3*-------|--0-0--------3---0----------|
B|--0-0--3h5p3---0-0-3h5p3---0-0-0------3*---|--0-0--3h5p3---0-0----------|
C#|-------------------------------|
G#|-------------------------------|
E|-------------------------------|
B|-------------------------------| 
F#|----5---3-----3-----3----------|
B|--5---5---5-5---5-3---5-3-3-2--|
C#|-------------------------------------------|----------------------------|
G#|-------------------------------------------|----------------------------|
E|-------------------------------------------|----------------------------|
B|-------------------------------------------|----------------------------| 
F#|--0-0--------3---0-------3--0-0-3*PH-------|--0-0--------3---0----------|
B|--0-0--3h5p3---0-0-3h5p3--0-0-0------3*PH--|--0-0--3h5p3---0-0----------|
C#|-------------------------------|
G#|-------------------------------|
E|-------------------------------|
B|-------------------------------| 
F#|----5---3-----3-----3----------|
B|--5---5---5-5---5-3---5-3-3-2--|
C#|-----------------------------------|------------------------------------|
G#|-----------------------------------|------------------------------------|
E|---7---7------5--5-5-5-5/7--7-7-7--|------------------------------------|
B|-5-5---5----3-3--3-3-3-3/5--5-5-5--|------------------------------------| 
F#|-5-5-5-5--0-3-3--3-3-3-3/5--5-5-5--|-0-0--------3---0-------3---0--3*---|
B|-5-5-5-5--0-3-3--3-3-3-3/5--5-5-5--|-0-0--3h5p3---0-0-3h5p3---0-0-----3*|
C#|-----------------------------------|
G#|-----------------------------------|
E|---7---7----5----------------------|
B|-5-5---5----3----------------------| 
F#|-5-5-5-5--0-3----------------------|
B|-5-5-5-5--0-3------5/15\3----------|
Chorus 2
C#|---------------------------------------|-----------------------------|
G#|-----3-3-------------------------------|-----------------------------|
E|-----2-2-------12-12-------10-10-------|-----------------------------|
B|--0--0-0-------10-10-------8--8--------|------------5-0-3-0----------| 
F#|--0--0-0--0-0--10-10--0-0--8--8--------|--0-0-3-2-0-5-0-3-0----------|
B|--0--0-0--0-0--10-10--0-0--8--8--------|--0-0-3-2-0-5-0-3-0----------|
C#|---------------------------------------|-----------------------------|
G#|-----3-3-------------------------------|-----------------------------|
E|-----2-2-------12-12-------10-10-------|-----------------------------|
B|--0--0-0-------10-10-------8--8--------|------------5-0-3-0----------| 
F#|--0--0-0--0-0--10-10--0-0--8--8--------|--0-0-3-0-0-5-0-3-0----------|
B|--0--0-0--0-0--10-10--0-0--8--8--------|--0-0-3-0-0-5-0-3-0----------|
C#|---------------------------------------|-----------------------------|
G#|-----3-3-------------------------------|-----------------------------|
E|-----2-2-------12-12-------10-10-------|-----------------------------|
B|--0--0-0-------10-10-------8--8--------|-----------------------------| 
F#|--0--0-0--0-0--10-10--0-0--8--8--------|-----------------------------|
B|--0--0-0--0-0--10-10--0-0--8--8--------|--0-0-5-3-0-5~-0-3-0---------|
C#|------------------------------------|-----------------------------------|
G#|-----3-3----------------------------|-----------------------------------|
E|-----2-2-------12-12-------10-10----|-----------------------------------|
B|--0--0-0-------10-10-------8--8-----|------------5-0-3-0-7~----0~~~~----| 
F#|--0--0-0--0-0--10-10--0-0--8--8-----|--0-0-3-0-0-5-0-3-0-7~----0~~~~----|
B|--0--0-0--0-0--10-10--0-0--8--8-----|--0-0-3-0-0-5-0-3-0-7~----0~~~~----|
Bridge  clean part
C#|------------------------------------------------------| 4 times
G#|------------------------------------------------------|
E|------------------------------------------------------|
B|-----------------0-----0-----0-----0-----0-----0------| 
F#|------------------------------------------------------|
B|--0--0-0-0-5-7-8---8-7---7-5---5-3---3-5---5-3---0-2--|
Bridge  distorted part
C#|---------------------------------------------------------------|4 times
G#|---------------------------------------------------------------|
E|---------------------------------------------------------------|
B|---------------------------------------------------------------| 
F#|---------------------------------------------------------------|
B|--0-0-5-3-0-5/8-8-8-10-8-7\5-3-3-5-3-0-7-7-7-8-7-5\3-----------|
C#|-----------------------------------------------------------------------|
G#|-----------------------------------------------------------------------|
E|-----------------------------------------------------------------------|
B|-----------------------------------------------------------------------| 
F#|----------------------------------------------------------1b-----------|
B|--1b-0-0-0-0-3b-0-1b-0-0-0-0-3b-0-1b-3b-0-1b-3b-0-1b-3b-0----1b-0~~~~~-|
Chorus 3 - clean
C#|--0-----------------------------------------------------------| 3 times
G#|--3----3-3----------------------------------------------------|
E|--2----2-2-------12-12-------10-10---10-10-10---10-10-10------|
B|--0----0-0-------10-10-------8--8----8--8--8h10-10-10-8--0----| 
F#|--0----0-0--0-0--10-10--0-0--8--8----8--8--8----8--8--8--0----|
B|--0----0-0--0-0--10-10--0-0--8--8----8--8--8----8--8--8--0----|
C#|--0-----------------------------------------------------------|
G#|--3----3-3----------------------------------------------------|
E|--2----2-2-------12-12-------10-------------------------------|
B|--0----0-0-------10-10-------8--------------------------------| 
F#|--0----0-0--0-0--10-10--0-0--8--------------------------------|
B|--0----0-0--0-0--10-10--0-0--8-------X\\\\\\\-- -19\3\0-------|
pick scrape      
Chorus 4
C#|---------------------------------------|-----------------------------|
G#|-----3-3-------------------------------|-----------------------------|
E|-----2-2-------12-12-------10-10-------|-----------------------------|
B|--0--0-0-------10-10-------8--8--------|------------5-0-3-0----------| 
F#|--0--0-0--0-0--10-10--0-0--8--8--------|--0-0-3-2-0-5-0-3-0----------|
B|--0--0-0--0-0--10-10--0-0--8--8--------|--0-0-3-2-0-5-0-3-0----------|
C#|---------------------------------------|-----------------------------|
G#|-----3-3-------------------------------|-----------------------------|
E|-----2-2-------12-12-------10-10-------|-----------------------------|
B|--0--0-0-------10-10-------8--8--------|------------5-0-3-0----------| 
F#|--0--0-0--0-0--10-10--0-0--8--8--------|--0-0-3-0-0-5-0-3-0----------|
B|--0--0-0--0-0--10-10--0-0--8--8--------|--0-0-3-0-0-5-0-3-0----------|
C#|---------------------------------------|-----------------------------|
G#|-----3-3-------------------------------|-----------------------------|
E|-----2-2-------12-12-------10-10-------|-----------------------------|
B|--0--0-0-------10-10-------8--8--------|-----------------------------| 
F#|--0--0-0--0-0--10-10--0-0--8--8--------|-----------------------------|
B|--0--0-0--0-0--10-10--0-0--8--8--------|--0-0-5-3-0-5~-0-3-0---------|
C#|------------------------------------|-----------------------------------|
G#|-----3-3----------------------------|-----------------------------------|
E|-----2-2-------12-12-------10-10----|-----------------------------------|
B|--0--0-0-------10-10-------8--8-----|------------5-0-3-0-7~-------------| 
F#|--0--0-0--0-0--10-10--0-0--8--8-----|--0-0-3-0-0-5-0-3-0-7~-------------|
B|--0--0-0--0-0--10-10--0-0--8--8-----|--0-0-3-0-0-5-0-3-0-7~-----15\3----|
Outro Riff
C#|------------------------------|-----------------------------|
G#|------------------------------|-----------------------------|
E|------------------------------|-----------------------------|
B|----------------3-------------|----------------3-----3h5~---| 
F#|------3-----3h5---5--5*PH-----|------3-----3h5---5-5--------|
B|--3h5---0-0-------------------|--3h5---0-0------------------|
C#|------------------------------|-----------------------------|
G#|------------------------------|-----------------------------|
E|------------------------------|-----------------------------|
B|----------------3-------------|-----------------------------| 
F#|------3-----3h5---5--5*PH-----|---5---3-----3-----3---------|
B|--3h5---0-0-------------------|-5---5---5-5---5-3---5-3-3-0-|
C#|-----------------------------------------------------------------------|
G#|-----------------------------------------------------------------------|
E|-----------------------------------------------------------------------|
B|----------------------------------------------------------------0~~~~~-| 
F#|----------------------------------------------------------1b----0~~~~~-|
B|--1b-0-0-0-0-3b-0-1b-0-0-0-0-3b-0-1b-3b-0-1b-3b-0-1b-3b-0----1b-0~~~~~-|
let ring