Feel Tabs – Whirr Vsion 1

 Title: Feel
Tempo = 132
Electric Guitar
Legend
L - tied note
x - dead note
h - hammer on/pull off
b - bend
s - slide
~ - vibrato
g - ghost note
> - accentuated note
t - trill
M - palm mute
. - staccato
P - popping (bass)
S - slapping (bass)
+ - tapping
W - wide vibrato
< - fade in
w - whammy bar
= - tremolo picking
v - brush up
^ - brush down
V - pick stroke up
n - pick stroke down
LEAD:
E ||---------------|----------------|----------------|-------|----------------|
B ||---------------|----------------|----------------|-------|----------------|
G ||o---5-----8L---|--8--5----------|-----5-----8L---|--8----|--6--5----------|
D ||o8-------------|-----------8L---|--8-------------|-------|-----------8L---|
A ||---------------|----------------|----------------|-------|----------------|
E ||---------------|----------------|----------------|-------|----------------|
----------------|----------------|------||----------------|----------------|
----------------|----------------|------||--6-------------|----------------|
-----------5L---|--5-------------|-----o||-----------8L---|--8--8--8--5L---|
--8--6----------|-----6-----5L---|--5--o||----------------|----------------|
----------------|----------------|------||----------------|----------------|
----------------|----------------|------||----------------|----------------|
-------|-------|----------------|----------------|-------|-------|
-------|-------|--6--6--6--8----|--8--8--8-------|-------|-------|
--5L---|--5----|----------------|-----------8L---|--8L---|--8----|
-------|-------|----------------|----------------|-------|-------|
-------|-------|----------------|----------------|-------|-------|
-------|-------|----------------|----------------|-------|-------|
----------------|----------------|-------|-------|----------------|
--6-------------|----------------|-------|-------|----------------|
-----------8L---|--8--8--8--5L---|--5L---|--5----|-----------5----|
----------------|----------------|-------|-------|--8-------------|
----------------|----------------|-------|-------|----------------|
----------------|----------------|-------|-------|----------------|
----------------|-------|-------|----------------|----------------|
----------------|-------|-------|----------------|----------------|
--5--5--5-------|-------|-------|--5--5--5--5----|--5--5--5--5----|
-----------6L---|--6L---|--6----|----------------|----------------|
----------------|-------|-------|----------------|----------------|
----------------|-------|-------|----------------|----------------|
----------------|----------------|----------------|----------------|
----------------|----------------|----------------|----------------|
----------------|----------------|--5--5--5--5----|--5--5--5--5----|
--5--5--5-------|----------------|----------------|----------------|
-----------8----|--8--8--8--8----|----------------|----------------|
----------------|----------------|----------------|----------------|
----------------|-------|----------------|----------------|----------------|
----------------|-------|----------------|----------------|----------------|
--6--6--6--5L---|--5----|--5--5--5--5----|--5--5--5--5----|--8--8--8--5----|
----------------|-------|----------------|----------------|----------------|
----------------|-------|----------------|----------------|----------------|
----------------|-------|----------------|----------------|----------------|
----------------|----------------|----------------|----------------|-------|
----------------|--6--6--6--6----|--6--6--6--6----|----------------|-------|
--5--5--5--5----|----------------|----------------|--5--5--5--6L---|--6----|
----------------|----------------|----------------|----------------|-------|
----------------|----------------|----------------|----------------|-------|
----------------|----------------|----------------|----------------|-------|
----------------|----------------|-------|-------|----------------|
--6-------------