Fly intro Tabs – Maddie And Tae Vsion 2

 -------------------------------------------------------------------------------
                             SONG NAME - Band Name
-------------------------------------------------------------------------------
:


Tuning: Standard

Capo 5

e|------------------------------------------------------------------------------------|
B|--------1-------1-------1------1--------1--------1-----------1----------------------|
G|------------------------------------------------------------------------------------|
D|------------------------------------------------------------------------------------|
A|--3---------3-------3-------3------3---------3--------3-----------------------------|
E|------------------------------------------------------------------------------------|

e|--------0--------0-------0------0------0--------0--------0--------------------------|
B|------------------------------------------------------------------------------------|
G|------------------------------------------------------------------------------------|
D|------------------------------------------------------------------------------------|
A|--2---------2-------2------2------2-------2---------2-------------------------------|
E|------------------------------------------------------------------------------------|

e|-------------------------------------------------------------------------------------|
B|--------1-------1-------1------1-------1-------1------1---------1--------------------|
G|-------------------------------------------------------------------------------------|
D|-------------------------------------------------------------------------------------|
A|--0---------0-------0-------0------0-------0------0--------0-------------------------|
E|-------------------------------------------------------------------------------------|

e|-------------------------------------------------------------------------------------|
B|------1--------1-------1-------1-------1--------1---------1---------1----------------|
G|-------------------------------------------------------------------------------------|
D|-------------------------------------------------------------------------------------|
A|--1-------1--------1------1--------1--------1---------1--------1---------------------|
E|-------------------------------------------------------------------------------------|


************************************

| /   slide up
| \   slide down
| h   hammer-on
| p   pull-off
| ~   vibrato
| +   harmonic
| x   Mute note
| b   Bend
| pb  Pre-bend
| br  Bend release
| pbr Pre-bend release
| brb Bend release bend

************************************
(Visited 1 times, 1 visits today)

Comments are closed.