Intro/Verse
E---------------------|---------------------|---------------------|---------------------|
B---------------------|---------------------|---------------------|---------------------|
G------9-9--7-7-7-----|------9-9--7-7-7-----|------9-9--7-7-7-----|------9-9--7-7-7-----|
D-9-9--9-9--7-7-7-7-7-|-9-9--9-9--7-7-7-7-7-|-9-9--9-9--7-7-7-7-7-|-9-9--9-9--7-7-7-7-7-|
A-9-9--7-7--5-5-5-7-7-|-9-9--7-7--5-5-5-7-7-|-9-9--7-7--5-5-5-7-7-|-9-9--7-7--5-5-5-7-7-|
E-7-7-------------5-5-|-7-7-------------5-5-|-7-7-------------5-5-|-7-7-------------5-5-|

E---------------------|---------------------|---------------------|---------------------|
B---------------------|---------------------|---------------------|---------------------|
G------9-9--7-7-7-----|------9-9--7-7-7-----|------9-9--7-7-7-----|------9-9--7-7-7-----|
D-9-9--9-9--7-7-7-7-7-|-9-9--9-9--7-7-7-7-7-|-9-9--9-9--7-7-7-7-7-|-9-9--9-9--7-7-7-7-7-|
A-9-9--7-7--5-5-5-7-7-|-9-9--7-7--5-5-5-7-7-|-9-9--7-7--5-5-5-7-7-|-9-9--7-7--5-5-5-7-7-|
E-7-7-------------5-5-|-7-7-------------5-5-|-7-7-------------5-5-|-7-7-------------5-5-|

E---------------------|---------------------|---------------------|---------------------|
B---------------------|---------------------|---------------------|---------------------|
G------9-9--7-7-7-----|------9-9--7-7-7-----|------9-9--7-7-7-----|------9-9--7-7-7-----|
D-9-9--9-9--7-7-7-7-7-|-9-9--9-9--7-7-7-7-7-|-9-9--9-9--7-7-7-7-7-|-9-9--9-9--7-7-7-7-7-|
A-9-9--7-7--5-5-5-7-7-|-9-9--7-7--5-5-5-7-7-|-9-9--7-7--5-5-5-7-7-|-9-9--7-7--5-5-5-7-7-|
E-7-7-------------5-5-|-7-7-------------5-5-|-7-7-------------5-5-|-7-7-------------5-5-|


Chorus
E---------------------------------|---------------------------------|---------------------------------|
B---------------------------------|---------------------------------|---------------------------------|
G---------9-9-9-9-7-7-7-7---------|---------9-9-9-9-7-7-7-7---------|---------9-9-9-9-7-7-7-7---------|
D-9-9-9-9-9-9-9-9-7-7-7-7-7-7-7-7-|-9-9-9-9-9-9-9-9-7-7-7-7-7-7-7-7-|-9-9-9-9-9-9-9-9-7-7-7-7-7-7-7-7-|
A-9-9-9-9-7-7-7-7-5-5-5-5-7-7-7-7-|-9-9-9-9-7-7-7-7-5-5-5-5-7-7-7-7-|-9-9-9-9-7-7-7-7-5-5-5-5-7-7-7-7-|
E-7-7-7-7-----------------5-5-5-5-|-7-7-7-7-----------------5-5-5-5-|-7-7-7-7-----------------5-5-5-5-|

E---------------------------------|---------------------------------|---------------------------------|
B---------------------------------|---------------------------------|---------------------------------|
G---------9-9-9-9-7-7-7-7---------|---------9-9-9-9-7-7-7-7---------|---------9-9-9-9-7-7-7-7---------|
D-9-9-9-9-9-9-9-9-7-7-7-7-7-7-7-7-|-9-9-9-9-9-9-9-9-7-7-7-7-7-7-7-7-|-9-9-9-9-9-9-9-9-7-7-7-7-7-7-7-7-|
A-9-9-9-9-7-7-7-7-5-5-5-5-7-7-7-7-|-9-9-9-9-7-7-7-7-5-5-5-5-7-7-7-7-|-9-9-9-9-7-7-7-7-5-5-5-5-7-7-7-7-|
E-7-7-7-7-----------------5-5-5-5-|-7-7-7-7-----------------5-5-5-5-|-7-7-7-7-----------------5-5-5-5-|


Post Chorus ("Fuck those Kids...")
E-----------------------------------------------------------------|
B-----------------------------------------------------------------|
G-9---------------9---------------9---------------9---------------|
D-9---------------9---------------9---------------9---------------|
A-7---------------7---------------7---------------7---------------|
E-----------------------------------------------------------------|


Verse               x10
E---------------------|
B---------------------|
G------9-9--7-7-7-----|
D-9-9--9-9--7-7-7-7-7-|
A-9-9--7-7--5-5-5-7-7-|
E-7-7-------------5-5-|


Chorus
E---------------------------------|---------------------------------|---------------------------------|
B---------------------------------|---------------------------------|---------------------------------|
G---------9-9-9-9-7-7-7-7---------|---------9-9-9-9-7-7-7-7---------|---------9-9-9-9-7-7-7-7---------|
D-9-9-9-9-9-9-9-9-7-7-7-7-7-7-7-7-|-9-9-9-9-9-9-9-9-7-7-7-7-7-7-7-7-|-9-9-9-9-9-9-9-9-7-7-7-7-7-7-7-7-|
A-9-9-9-9-7-7-7-7-5-5-5-5-7-7-7-7-|-9-9-9-9-7-7-7-7-5-5-5-5-