Fuhre Mich Tab by Rammstein

Song: Führe Mich
Artist: Rammstein
Album: Liebe Ist Für Alle Da
Tuning: Drop D (DADGBE)
INTRO
2x
|---------------------------------------------------------------|
|---------------------------------------------------------------|
|---------------------------------------------------------------|
|---------------------------------------------------------------|
|---------------------------------------------------------------|
|-0-0-0-0-0-0-6---0-0-0---0-0-0---0-0-0-0-0-0-6---0-0-0---0-0-0-|
KICK
2x
|---------------------------------------------------------------|
|---------------------------------------------------------------|
|---------------------------------------------------------------|
|-------------6-------------------------------6-----------------|
|-0-0-0-0-0-0-6---0-0-0---0-0-0---0-0-0-0-0-0-6---0-0-0---0-0-0-|
|-0-0-0-0-0-0-6---0-0-0---0-0-0---0-0-0-0-0-0-6---0-0-0---0-0-0-|
|---------------------------------------------------------------|
|---------------------------------------------------------------|
|---------------------------------------------------------------|
|-------------6-------------------------------6---3~------2~----|
|-0-0-0-0-0-0-6---0-0-0---0-0-0---0-0-0-0-0-0-6---3~------3~----|
|-0-0-0-0-0-0-6---0-0-0---0-0-0---0-0-0-0-0-0-6---3~------2~----|
VERSE
Just Bass
PRE-CHORUS
Horns
|---------------------------------------------------------------|
|---------------------------------------------------------------|
|---------------------------------2~----------------------------|
|-0~------------------------------x-----------------------------|
|-x-------------------------------0~----------------------------|
|-0~------------------------------------------------------------|
|---------------------------------------------------------------|
|---------------------------------------------------------------|
|-3~------------------------------------------------------------|
|-x---------------0~--------------5~----------------------------|
|-1~--------------x---------------x-----------------------------|
|-----------------0~--------------5~----------------------------|
CHORUS I
|---------------------------------------------------------------|
|---------------------------------------------------------------|
|---------------------------------------------------------------|
|-------------6-------------------------------6-----------------|
|-0-0-0-0-0-0-6---0-0-0---0-0-0---0-0-0-0-0-0-6---0-0-0---0-0-0-|
|-0-0-0-0-0-0-6---0-0-0---0-0-0---0-0-0-0-0-0-6---0-0-0---0-0-0-|
|---------------------------------------------------------------|
|---------------------------------------------------------------|
|---------------------------------------------------------------|
|-------------6-------------------------------6---3~------2~----|
|-0-0-0-0-0-0-6---0-0-0---0-0-0---0-0-0-0-0-0-6---3~------2~----|
|-0-0-0-0-0-0-6---0-0-0---0-0-0---0-0-0-0-0-0-6---3~------2~----|
|---------------------------------------------------------------|
|---------------------------------------------------------------|
|---------------------------------------------------------------|
|-------------6-------------------------------6-----------------|
|-0-0-0-0-0-0-6---0-0-0---0-0-0---0-0-0-0-0-0-6---0-0-0---0-0-0-|
|-0-0-0-0-0-0-6---0-0-0---0-0-0---0-0-0-0-0-0-6---0-0-0---0-0-0-|
|---------------------------------------------------------------|
|---------------------------------------------------------------|
|---------------------------------------------------------------|
|-------------6-------------------6-6-6-6-6-6-6-6-3~------1~----|
|-0-0-0-0-0-0-6---0-0-0---0-0-0---6-6-6-6-6-6-6-6-3~------1~----|
|-0-0-0-0-0-0-6---0-0-0---0-0-0---6-6-6-6-6-6-6-6-3~------1~----|
Horns
|---------------------------------------------------------------|
|---------------------------------------------------------------|
|---------------------------------2~----------------------------|
|-7~------------------------------x-----------------------------|
|-5~------------------------------0~----------------------------|
|---------------------------------------------------------------|
|---------------------------------------------------------------|
|---------------------------------------------------------------|
|-3~------------------------------------------------------------|
|-x---------------0~--------------5~----------------------------|
|-1~--------------x---------------x-----------------------------|
|-----------------0~--------------5~----------------------------|
VERSE 2
Here’s a weird riff here at 1:48
|(10)-x--x--x--x--x--x--x--x--x--x--x--x--x--x--x---------------|
|-x---x--x--x--x--x--x--x--x--x--x--x--x--x--x--x---------------|
|(7)--x--x--x--x--x--x--x--x--x--x--x--x--x--x--x---------------|
|---------------------------------------------------------------|
|---------------------------------------------------------------|
|---------------------------------------------------------------|
It’s something like that, just keep finger lightly touching the 7 and 10 like playing a 
harmonic.
PRE-CHORUS II
Guitar II/Keys
2x
|---------------------------------------------------------------|
|-----10--11--10~-----------------------------------------------|
|-7-----------------------------------7---9---7~----------------|
|---------------------------------------------------------------|
|---------------------------------5-----------------------------|
|---------------------------------------------------------------|
Horns Stay the Same
Chorus Again
Solo
2x
|-13~--------12--10-----------10--13~------------15---13p12p10~-|
|-x----------x---x---13~------x---x--------------x----x---------|
|-10~--------9---7---x--------7---10~------------12---10p9-p7~--|
|--------------------10~----------------------------------------|
|---------------------------------------------------------------|
|---------------------------------------------------------------|
|-13~--------12--10-----------10--12~-------------17~-----18~---|
|-x----------x---x---13---13--x---x---------------x-------x-----|
|-10~--------9---7---x----x---7---9-~-------------14~-----15~---|
|--------------------10---10------------------------------------|
|---------------------------------------------------------------|
|---------------------------------------------------------------|
INTERLUDE:
Guitars
|---------------------------------------------------------------|
|---------------------------------------------------------------|
|---------------------------------------------------------------|
|---------------------------------------------------------------|
|-0-0-0-0-0-0-----0-0-0---0-0-0---0-0-0-0-0-0-----0-0-0---0-0-0-|
|-0-0-0-0-0-0-----0-0-0---0-0-0---0-0-0-0-0-0-----0-0-0---0-0-0-|
CHORUS II
Guitars
|---------------------------------------------------------------|
|---------------------------------------------------------------|
|---------------------------------------------------------------|
|-\0~-----------------------------0~----------------------------|
|-\0~-----------------------------0~----------------------------|
|-\0~-----------------------------0~----------------------------|
|---------------------------------------------------------------|
|---------------------------------------------------------------|
|-3~------------------------------------------------------------|
|-3~------------------------------5~----------------------------|
|-1~------------------------------5~----------------------------|
|---------------------------------5~----------------------------|
|---------------------------------------------------------------|
|---------------------------------------------------------------|
|---------------------------------------------------------------|
|-0~------------------------------0~----------------------------|
|-0~------------------------------0~----------------------------|
|-0~------------------------------0~----------------------------|
|---------------------------------------------------------------|
|---------------------------------------------------------------|
|-3~------------------------------------------------------------|
|-3~------------------------------5~--------------3~------1~----|
|-1~------------------------------5~--------------3~------1~----|
|---------------------------------5~--------------3~------1~----|
Keys
2x
|---------------------------------------------------------------|
|---------------------------------10~---------------------------|
|-----------------~10-------------X-----------------------------|
|------------------X--------------7-~---------------------------|
|-----------------~8--------------------------------------------|
|---------------------------------------------------------------|
|---------------------------------------------------------------|
|-11~--------------6~-------------8~----------------------------|
|-X----------------X--------------X-----------------------------|
|-8-~--------------3~-------------5~----------------------------|
|---------------------------------------------------------------|
|---------------------------------------------------------------|
Chorus I again
With Horns and Solo
And yer done.
Go Rammstein.