SONG:   GAMES PEOPLE PLAY
ARTIST: JOE SOUTH
TAB BY: DON CZARSKI
EMAIL:  GUITARZAN7@HOTMAIL.COM


                     GAMES PEOPLE PLAY
                         JOE SOUTH


CAPO: 2nd FRET - (In videos Joe South has a capo on the 2nd fret)
                  
INTRO:

DANELECTRO ELECTRIC SITAR (FEEL FREE TO IMPROVISE)
   
    G D C D7 G 
E --------------|-----------------|------------|-----------|
B -----3--------|------3----------|-------3-5--|-----------|
G -2/4---0-0-0--|--2/4---4-2-2-2--|--2/4-------|--2/4-2-0--|
D --------------|-----------------|------------|-----------|
A --------------|-----------------|------------|-----------|
E --------------|-----------------|------------|-----------|

    G D 
E ------------------|-------------------|
B ------------------|-------------------|
G -2/4-4-2-0-0-0-0--|--2/4-4-2-0-2-2-2--|
D ------------------|-------------------|
A ------------------|-------------------|
E ------------------|-------------------|

             C D7 G 
E -----------------|------------------|
B --------3-5-5-5--|--5-5\3-----------|
G --2-2/4----------|--------4-2-0-0-0-|
D -----------------|------------------|
A -----------------|------------------|
E -----------------|------------------|


VERSE:
 G 
La da da da da da da 
             D 
La da da da da da de
          C         
La-da da da da da 
 D7 G 
 La da da da 


VERSE:
 G                        
Oh, the games people play now,
                        D 
Every night and every day now
                          C        
Never meaning what they say now,
 D7 G 
 Never saying what they mean


VERSE:
   G 
While they wile away the hours,
                 D 
In their ivory towers
                               C        
'Til they're covered up with flowers,
         D7 G 
In the back of a black limousine, woah-ah


CHORUS:
 G 
La da da da da da da 
             D 
La da da da da da de
                C           
Talking 'bout you and me,
 D7 G 
  And the games people play now


VERSE:
 G 
Oh, we make one another cry,
                        D 
Break a heart then we say goodbye
                          C    
Cross our hearts and we hope to die,
 D7 G 
 That the other was to blame, woah-ah


VERSE:
  G 
Neither one will ever give in,
                    D 
So we gaze at our eight by ten
                                 C               
Thinking 'bout the things that might have been,
 D7 G 
 And it's a dirty rotten shame, woah-ah


CHORUS:
 G 
La da da da da da da 
             D 
La da da da da da de
                C           
Talking 'bout you and me,
 D7 G 
  And the games people play, now


INSTRUMENTAL:

      G D C                  
Oh yeah, alright, oh yeah
      D7 G 
Come on, come on, come on, come on, come on

    G D 
E ------------------|-------------------|
B ------------------|-------------------|
G -2/4-4-2-0-0-0-0--|--2/4-4-2-0-2-2-2--|
D ------------------|-------------------|
A ------------------|-------------------|
E ------------------|-------------------|

             C D7 G 
E -----------------|------------------|
B --------3-5-5-5--|--5-5\3-----------|
G --2-2/4----------|--------4-2-0-0-0-|
D -----------------|------------------|
A -----------------|------------------|
E -----------------|------------------|

Let me hear i
(Visited 1 times, 1 visits today)