Go Zone Tabs – AC/DC V2

 -------------------------------------------------------------------------------
                             Go Zone - AC/DC
-------------------------------------------------------------------------------
: jothunder

Tuning: Standard

Disclaimer: This tab does not contain the guitar solo!

-------------------------------------------------------------------------------
    LEAD GUITAR

INTRO

e|---------------------|
B|---------------------|
G|---------------------|
D|-5/7---5-------------|
A|-----------5/7-------|
E|---------------------|

e|---------------------------------|
B|---------------------------------|
G|---------------------------------|
D|-7---5---------------------------|
A|---------7---5-------------------|
E|-----------------8---5---3---0---|

e|---------------------------------------|
B|---3-3-3-2-x-3--2-x--------------------|
G|---2-2-2-2-x-2--2-x--2-----------------| Play
D|---0-0-0-2-x-0--2-x--2-----------------| 4x
A|---------------------0-----------------|
E|---------------------------------------|


VERSE

e|-----------------------------------------------|
B|---3-3-3-2-x-----------------------------------|
G|---2-2-2-2-x-----0-2-x-----0-2-x---0-2-x-0-2-x-| Play
D|---0-0-0-2-x-----0-2-x-----0-2-x---0-2-x-0-2-x-|  4x
A|-----------------0-0-x-----0-0-x---0-0-x-0-0-x-|
E|-----------------------------------------------|

e|---------------------------------------------|
B|---6-6-6-5-x-6--5-x------6-6-6-5-x-6--5-x--8-|
G|---5-5-5-5-x-5--5-x--5---5-5-5-5-x-5--5-x--7-|
D|---3-3-3-5-x-3--5-x--5---3-3-3-5-x-3--5-x--5-|
A|---------------------3-----------------------|
E|---------------------------------------------|

e|---------------------------------------------|
B|---8-8-8-7-x-8--8-x------8-8-8-7-x-8--8-x----|
G|---7-7-7-7-x-7--7-x--7---7-7-7-7-x-7--7-x--2-|
D|---5-5-5-7-x-5--5-x--7---5-5-5-7-x-5--5-x--2-|
A|---------------------5---------------------0-|
E|---------------------------------------------|

e|---------------------------------------|
B|---3-3-3-2-x-3--2-x--------------------|
G|---2-2-2-2-x-2--2-x--2-----------------|
D|---0-0-0-2-x-0--2-x--2-----------------|
A|---------------------0-----------------|
E|---------------------------------------|


REFRAIN

e|---------------------------------------|
B|---3-3-3-2-x-3--2-x--------------------|
G|---2-2-2-2-x-2--2-x--2-----------------| Play
D|---0-0-0-2-x-0--2-x--2-----------------|  3x
A|---------------------0-----------------|
E|---------------------------------------|

e|-----------------------------------------------|
B|---3-3-3-2-x-3--2-x----------------------------|
G|---2-2-2-2-x-2--2-x----------7-----------------|
D|---0-0-0-2-x-0--2-x----------7-----------------|
A|---------------------------3-5-----------------|
E|-----------------------3-5---------------------|

e|---------------------------------|
B|---------------------------------|
G|---------------------------------|
D|-7---5---------------------------|
A|---------7---5-------------------|
E|-----------------8---5---3---0---|

e|---------------------------------------|
B|---3-3-3-2-x-3--2-x--------------------|
G|---2-2-2-2-x-2--2-x--2-----------------| Play
D|---0-0-0-2-x-0--2-x--2-----------------|  2x
A|---------------------0-----------------|
E|---------------------------------------|


VERSE

e|-----------------------------------------------|
B|---3-3-3-2-x-----------------------------------|
G|---2-2-2-2-x-----0-2-x-----0-2-x---0-2-x-0-2-x-| Play
D|---0-0-0-2-x-----0-2-x-----0-2-x---0-2-x-0-2-x-|  4x
A|-----------------0-0-x-----0-0-x---0-0-x-0-0-x-|
E|-----------------------------------------------|

e|---------------------------------------------|
B|---6-6-6-5-x-6--5-x------6-6-6-5-x-6--5-x--8-|
G|---5-5-5-5-x-5--5-x--5---5-5-5-5-x-5--5-x--7-|
D|---3-3-3-5-x-3--5-x--5---3-3-3-5-x-3--5-x--5-|
A|---------------------3-----------------------|
E|---------------------------------------------|

e|---------------------------------------------|
B|---8-8-8-7-x-8--7-x------8-

Comments are closed.