Golden Number intro Tabs – Ghost Bath Vsion 1

 -------------------------------------------------------------------------------
Golden Number Intro - Ghost Bath
-------------------------------------------------------------------------------
: Vijasan
Tuning: C G C F A D
Tremolo pick this
e|---------------------------------------------------------------------------|
B|-13-13-13-13-13-13-15-15-15-15-15-15-15-15-15-15---------------------------|
G|---------------------------------------------------------------------------|
D|---------------------------------------------------------------------------|
A|---------------------------------------------------------------------------|
E|---------------------------------------------------------------------------|
e|---------------------------------------------------------------------------|
B|-13-13-13-13-13-13-15-15-15-15-15-15-15-15-15-15---------------------------|
G|---------------------------------------------------------------------------|
D|---------------------------------------------------------------------------|
A|---------------------------------------------------------------------------|
E|---------------------------------------------------------------------------|
e|---------------------------------------------------------------------------|
B|-10-10-10-10-10-10---------------------------------------------------------|
G|-------------------15-15-15-15-15-15-15-15-15-15---------------------------|
D|---------------------------------------------------------------------------|
A|---------------------------------------------------------------------------|
E|---------------------------------------------------------------------------|
e|---------------------------------------------------------------------------|
B|10-10-10-10-10-10----------------------------------------------------------|
G|-------------------15-15-15-15-15-15-15-15-15-15---------------------------|
D|---------------------------------------------------------------------------|
A|---------------------------------------------------------------------------|
E|---------------------------------------------------------------------------|
e|---------------------------------------------------------------------------|
B|-13-13-13-13-13-13-15-15-15-15-15-15-15-15-15-15---------------------------|
G|---------------------------------------------------------------------------|
D|---------------------------------------------------------------------------|
A|---------------------------------------------------------------------------|
E|---------------------------------------------------------------------------|
e|---------------------------------------------------------------------------|
B|-13-13-13-13-13-13-15-15-15-15-15-15-15-15-15-15---------------------------|
G|---------------------------------------------------------------------------|
D|---------------------------------------------------------------------------|
A|---------------------------------------------------------------------------|
E|---------------------------------------------------------------------------|
e|---------------------------------------------------------------------------|
B|10-10-10-10-10-10----------------------------------------------------------|
G|-------------------15-15-15-15-15-15-15-15-15-15---------------------------|
D|---------------------------------------------------------------------------|
A|---------------------------------------------------------------------------|
E|---------------------------------------------------------------------------|
e|---------------------------------------------------------------------------|
B|10-10-10-10-10-10----------------------------------------------------------|
G|-------------------15-15-15-15-15-15-15-15-15-15---------------------------|
D|---------------------------------------------------------------------------|
A|-----------------------------------------------------------