: Fabio BlenderBR

 - Give your rating and help others users to find the best versions of the songs -


 - Intro:
e|---------------------------------|
B|---------------------------------|
G|---------------------------------|
D|-------9-9-9---------------------|    x4 
A|-6-6-6-------6-6-6-7-7-7-9-9-7-7-|  
E|---------------------------------|  


 - Intro 2

 B E F#m       (2x)


 - Verse

 B 
Your dad can suck my cock if he can come and play
       E F#m 
Your mom can to touch my dick every single fucking day
 B 
With the fingers on my hand, your brother he will buckle
       E F#m 
For another dollar fucking do it to your uncle


 - Chorus

        G#m E F#m 
It's a hot damn day down in california
        G#m E F#m 
It's a grand old way in california
        G#m E F#m 
If you come and play, I just gotta warn ya


 - Intro

 B E F#m       (2x)


 - Verse 2

 B 
You can take a dump on my chest if it's okay
       E F#m 
Just don't take a piss in someone's mouth when you're away
 B 
I jack myself to sleep every night, I'll have a dozen
      E F#m 
I'll let you watch the show when I'm pooping on your cousin


 - Chorus

        G#m E F#m 
It's a fun, hard day in california
        G#m E F#m 
It's a grand old day in california
        G#m E F#m 
Can you come play here in california?
  E F#m E 
California, this is california
     F#m 
We fuck in california


 - Bridge:

 B E F#m      (2x)


 - Intro:
e|---------------------------------|
B|---------------------------------|
G|---------------------------------|
D|-------9-9-9---------------------|    x4 
A|-6-6-6-------6-6-6-7-7-7-9-9-7-7-|  
E|---------------------------------|  


 - Chorus

        G#m E F#m 
It's a fun, hard day in california
        G#m E F#m 
It's a grand old day in california
        G#m E F#m 
Can you come play here in california?
  E F#m E 
California, this is california
     F#m 
We fuck in california

     B E F#m 
And this is california
     B E F#m 
And this is california
     B E F#m 
We fuck in california
     B E F#m 
And this is california
     B E F#m 
We fuck in california
     B E F#m B 
We fuck in california

Cause this is california

__________
Hope you liked!

: Fabio BlenderBR
(Visited 1 times, 1 visits today)