Goodbye Agony Tabs – Black Veil Brides

 guitar1:(2x)
|----------------------------------------------------------------------------------------------------------|
|--------2---3-----------------2---------------------------2-----3-----------------------------------------|
|------4-------------------4-------4-----------------4-------------------------------3--------4-----/6-----|
|----------------------------------------------------------------------------------------------------------|
|----2-----------------------------------------------------------------------------------------------------|
|---------------------5--------------------2---------------------------------4-----------------------------|

guitar2:
|----------------------------------------------------------------------------------------------------------|
|------12----------------------------------------------------------------11----------12----------14--------|
|----------------11------12------11------12-------\9------------12-----------------------------------------|
|----------------------------------------------------------------------------------------------------------|
|----------------------------------------------------------------------------------------------------------|
|----------------------------------------------------------------------------------------------------------|

Intro/Chorus lead part 1:
|---------------------------------------------------------------------14-----------------------------------|
|---12---------12---14---15b----------12---14----15--15b--15b---14--------14----12------11---12------------|
|----------11-----------------------11---------------------------------------------------------------------|
|----------------------------------------------------------------------------------------------------------|
|----------------------------------------------------------------------------------------------------------|
|----------------------------------------------------------------------------------------------------------|

|---------------------------------------------------------------------14-----------------------------------|
|---12---------12---14---15b----------12---14----15--15b---15b---14--------14----12----11---12b------------|
|--------11-----------------------11-----------------------------------------------------------------------|
|----------------------------------------------------------------------------------------------------------|
|----------------------------------------------------------------------------------------------------------|
|----------------------------------------------------------------------------------------------------------|

Chorus Lead part2:
|----------------------------------------------------------------------------------------------------------|
|------12--------------------------------------------------------------11----------12------------14--------|
|-------------11------12------11-----12----11-----12------9-----12-----------------------------------------|
|----------------------------------------------------------------------------------------------------------|
|----------------------------------------------------------------------------------------------------------|
|----------------------------------------------------------------------------------------------------------|
solo:

|---14b---14b---12-10---14p10---------------------10------------------14p10--------------------------------|
|--------------------------------12--10--12-------------14--12--14------------12---------------------------|
|----------------------------------------------------------------------------------------------------------|
|----------------------------------------------------------------------------------------11----12b---------|
|----------------------------------------------------------------------------------------------------------|
|--------------------------------------------------------------------------------------------------
(Visited 1 times, 1 visits today)

Comments are closed.