Half A Heart Tabs by One Direction

 Capo 5
------

Intro:

  G
E|-------------------------|
B|-------------------------|
G|-----0-----------0-------|
D|---0---0---0---0---0---0-|
A|---------2-----------2---|
E|-3-----------3-----------|

Verse:

  G                       D/F#                     Em                      C
E|-------------------------------------------------------------------------------------------------|
B|-----------------------------------------------------------------------------1-----------1-------|
G|-----0-----------0-----------2-----------2-----------0-----------0---------0---0---0---0---0---0-|
D|---0---0---0---0---0---0---0---0---0---0---0---0---2---2---2---2---2---2---------2-----------2---|
A|---------2-----------2-----------0-----------0-----------2-----------2---3-----------3-----------|
E|-3-----------3-----------2-----------2-----------0-----------0-----------------------------------|x2

Bridge:

  Em                       D/F#
E|-------------------------------------------------|
B|-------------------------------------------------|
G|-----0-----------0-----------2-----------2-------|
D|---2---2---2---2---2---2---0---0---0---0---0---0-|
A|---------2-----------2-----------0-----------0---|
E|-0-----------0-----------2-----------2-----------|

Chorus:

  G                        D/F#                    Em                      C
E|-------------------------------------------------------------------------------------------------|
B|-----------------------------------------------------------------------------1-----------1-------|
G|-----0-----------0-----------2-----------2-----------0-----------0---------0---0---0---0---0---0-|
D|---0---0---0---0---0---0---0---0---0---0---0---0---2---2---2---2---2---2---------2-----------2---|
A|---------2-----------2-----------0-----------0-----------2-----------2---3-----------3-----------|
E|-3-----------3-----------2-----------2-----------0-----------0-----------------------------------|x2

Little Transition between verse and chorus:

  G
E|-------------------------|
B|-------------------------|
G|-----0-----------0-------|
D|---0---0---0---0---0---0-|
A|---------2-----------2---|
E|-3-----------3-----------|

Verse:

  G                       D/F#                     Em                      C
E|-------------------------------------------------------------------------------------------------|
B|-----------------------------------------------------------------------------1-----------1-------|
G|-----0-----------0-----------2-----------2-----------0-----------0---------0---0---0---0---0---0-|
D|---0---0---0---0---0---0---0---0---0---0---0---0---2---2---2---2---2---2---------2-----------2---|
A|---------2-----------2-----------0-----------0-----------2-----------2---3-----------3-----------|
E|-3-----------3-----------2-----------2-----------0-----------0-----------------------------------|x2

Bridge:

  Em                       D/F#
E|-------------------------------------------------|
B|-------------------------------------------------|
G|-----0-----------0-----------2-----------2-------|
D|---2---2---2---2---2---2---0---0---0---0---0---0-|
A|---------2-----------2-----------0-----------0---|
E|-0-----------0-----------2-----------2-----------|

Chorus:

  G                        D/F#                    Em                      C
E|-------------------------------------------------------------------------------------------------|
B|-----------------------------------------------------------------------------1-----------1-------|
G|-----0-----------0-----------2-----------2-----------0-----------0---------0---0---0---0---0---0-|
D|---0---0---0---0---0---0---0---0---0---0---0---0---2---2---2---2---2---2---------2-----------2---|
A|---------2-----------2-----------0-----------0-----------2-----------2---3-----------3-----------|
E|-3-----------3-----------2-----------2-----------0-----------0---------------------------
(Visited 1 times, 1 visits today)

Comments are closed.