Half A Heart Tabs by One Direction V2

 Hi there!  I just had to tab this song.  I love simple
picking patterns in songs like this :) So, I tabbed this
from youtube, which I NEVER do because they are pitched
constantly, but it doesn't sound pitched.  Worse case 
scenario- The album is released and this turns out to be 
pitched, it will just be a capo change and I'll update 
a.s.a.p. with the change :)

*NOTE*
*Pay attention to the numbers in the ( )'s next to the chords. This is how many
 times that chord pattern is picked.  Play along with the song to get the timing 
 down. :)



STANDARD TUNING w/
CAPO ON 5


      
     G (x4)               D/F# (x2)           Em7 (x2)          C (x2)
e|---------3------------------2-----------------0-----------------0-----------|
B|---------3--3---3-----------3--3---3----------3--3---3----------1--1---1----|
G|------0-------0----------2-------2---------0-------0---------0-------0------|
D|----------------------------------------------------------------------------|
A|-----------------------------------------------------------3----------------|
E|---3------------------2-----------------0-----------------------------------|

G                            D/F#
So your friends been telling me
                             Em7                     
You've been sleeping with my sweater
             C               
And that you can't stop missing me




     G (x2)               D/F# (x2)           Em7 (x2)          C (x2)
e|---------3------------------2-----------------0-----------------0-----------|
B|---------3--3---3-----------3--3---3----------3--3---3----------1--1---1----|
G|------0-------0----------2-------2---------0-------0---------0-------0------|
D|----------------------------------------------------------------------------|
A|-----------------------------------------------------------3----------------|
E|---3------------------2-----------------0-----------------------------------|

G                           D/F#
Bet my friends been telling you
                   Em
I'm not doing much better
            C
Because I'm missing half of me




    Em7 (x2)            D/F# (x2)
e|--------0----------------2-----------|
B|--------3--3---3---------3--3---3----|
G|-----0-------0--------2-------2------|
D|-------------------------------------|
A|-------------------------------------|
E|--0----------------2-----------------|

Em                          D/F#
  And being here without you,   It's like I'm waking up to





     G (x2)               D/F# (x2)           Em7 (x2)          C (x2)
e|---------3------------------2-----------------0-----------------0-----------|
B|---------3--3---3-----------3--3---3----------3--3---3----------1--1---1----|
G|------0-------0----------2-------2---------0-------0---------0-------0------|
D|----------------------------------------------------------------------------|
A|-----------------------------------------------------------3----------------|
E|---3------------------2-----------------0-----------------------------------|

G                     D/F#                         Em7
  Only half a blue sky,   kinda there but not quite
                                C
I'm walking round with just one shoe, I'm a half a heart without you




     G (x2)               D/F# (x2)           Em7 (x2)          C (x2)
e|---------3------------------2-----------------0-----------------0-----------|
B|---------3--3---3-----------3--3---3----------3--3---3----------1--1---1----|
G|------0-------0----------2-------2---------0-------0---------0-------0------|
D|----------------------------------------------------------------------------|
A|-----------------------------------------------------------3----------------|
E|---3------------------2-----------------0-----------------------------------|

G                          D/F#                             Em7
  I'm half the man, at best,  with half an arrow in my che
(Visited 1 times, 1 visits today)

Comments are closed.