Half Past Dead intro Tabs – Billy Talent

 Billy Talent - Half Past Dead  (Intro + Chorus)
[Intro]
e|---------------------------------|
B|------------------------7r-------|
G|-7--7-7-7-7-----------7----------|
D|-6--6-6-6-6-x--------------------|
A|------------x--------------------|
D|------------x-4-5-6-7------------|(x6)
[Chorus]
e|--------------------------------------------------------------------------------------------------------|
B|--------------------------------------------------------------------------------------------------------|
G|--------------------------------------------------------------------------------------------------------|
D|-7-9--7-9-7--9-7-9--9-9--5-7--5-7--5------0-2--2-2--0-2--0-2--0--2--0--5--5-5--5-7--5-7--8-7-5-2--2-2---|
A|-5-7--5-7-5--7-7-9--9-9--5-7--5-7--5------0-2--2-2--0-2--0-2--0--2--0--5--5-5--5-7--5-7--8-7-5-2--2-2---|
D|---------------7-9--9-9--5-7--5-7--5--8\--0-2--2-2--0-2--0-2--0--2--0--5--5-5--5-7--5-7--8-7-5-2--2-2---|
e|-----------------------------------------------------------------------------------------------------------|
B|-----------------------------------------------------------------------------------------------------------|
G|-----------------------------------------------------------------------------------------------------------|
D|-7-9--7-9-7--9-7-9--9-9--5-7--5-7--5------0-2--2-2--0-2--0-2--0--2--0--5--5-5--5-7--5-7--8-7-5-2--2-2--0-2-|
A|-5-7--5-7-5--7-7-9--9-9--5-7--5-7--5------0-2--2-2--0-2--0-2--0--2--0--5--5-5--5-7--5-7--8-7-5-2--2-2--0-2-|
D|---------------7-9--9-9--5-7--5-7--5--8\--0-2--2-2--0-2--0-2--0--2--0--5--5-5--5-7--5-7--8-7-5-2--2-2--0-2-|
************************************
| x  Dead note
| r  Release
| \  Slide down
************************************