Halfway To A Threeway Tabs – jim o'rourke V2

 -------------------------------------------------------------------------------
                      HALFWAY TO A THREEWAY - Jim O'Rourke 
-------------------------------------------------------------------------------
: harrytheblurfan

This song is in DGCFAd, however, you can just play it in standard and put a capo 
if you're not too keen on alternative turnings. 

The song has three picking parts to it. One for the verse and two for the chorus.
I'll put the first line of the song where the parts come in.

Capo III

Tuning: DGCFAd

   "I used to have none..."                        
d|------------------------------0--------------------------------0--------------|
A|---1~-------1-------0--h1---------------------------0-------3------3---0------|
F|--------2-------2-------------------------------2--------/4-------------------|
C|---2~-----2-------2--------2----2---2---2-------0-----0---0------0---0---0----|x2
G|-0----0-------0-------0-------0---0---0---------------------------------------|
D|------------------------------------------0-1-2---2-----3-----3----3---3------|
   "You ain't getting any sleep tonight..."
d|---3-------2p0-------0------------------3--------2p0-------0------------------|
A|-------0---------3--------3--------0---------0---------3-------3--------------|
F|-------------------------------2------------------------------------2---0-----|
C|---0-----0-----0-------0----0----0------0------0-----0-------0----0---0-------|
G|------------------------------------------------------------------------------|
D|-0---0-----2-------2------3---3-------0----0-----2-------2-----3----3---------|
   "And I hope that you won't run away..." 
d|------------------------------------------------------------------------------|
A|------------0---------------0---------------------0--------------0------------|
F|-----0--0-------0----2p0--2-----0----------0--0-------0---2p0--2--------------|
C|--0---------0-----0-----0-----0---0--0--0---------0-----0----0----0---0--0--0-|
G|------------------------------------------------------------------------------|
D|-3--3--3--0---0------2----2-----3--3--3---3--3--0---0-----2----2----3--3--3---|

   "I tried again and again..."                        
d|------------------------------0--------------------------------0--------------|
A|---1~-------1-------0--h1---------------------------0-------3------3---0------|
F|--------2-------2-------------------------------2--------/4-------------------|
C|---2~-----2-------2--------2----2---2---2-------0-----0---0------0---0---0----|x2
G|-0----0-------0-------0-------0---0---0---------------------------------------|
D|------------------------------------------0-1-2---2-----3-----3----3---3------|
   "And I do everything it takes..."
d|---3-------2p0-------0------------------3--------2p0-------0------------------|
A|-------0---------3--------3--------0---------0---------3-------3--------------|
F|-------------------------------2------------------------------------2---0-----|
C|---0-----0-----0-------0----0----0------0------0-----0-------0----0---0-------|
G|------------------------------------------------------------------------------|
D|-0---0-----2-------2------3---3-------0----0-----2-------2-----3----3---------|
   "So I know that you can't roll away..." 
d|------------------------------------------------------------------------------|
A|------------0---------------0---------------------0--------------0------------|
F|-----0--0-------0----2p0--2-----0----------0--0-------0---2p0--2--------------|
C|--0---------0-----0-----0-----0---0--0--0---------0-----0----0----0---0--0--0-|
G|------------------------------------------------------------------------------|
D|-3--3--3--0---0------2----2-----3--3--3---3--3--0---0-----2----2----3--3--3---|

   "Can't wipe the smile off my face..."                        
d|------------------------------0--------------------------------0--------------|
A|---1~-------1-------0--h1---------------------------0-----

Comments are closed.