-------------------------------------------------------------------------------
                             Hand Cannot Erase - Steven Wilson
-------------------------------------------------------------------------------

: Bobbits

Tuning EADGBe


Guitar 1 

e|------------0-0------------0----------0----0------------0----0-----0----0----0----0---0------|
B|----17------------14----14---14----14---14---14-16-12-----12\---10---10---10---10--10--10----|
G|-14----14-16---13----13---------13--------------------13-------------------------------------|
D|---------------------------------------------------------------------------------------------|
A|---------------------------------------------------------------------------------------------|    
E|---------------------------------------------------------------------------------------------|     }x3

e|---------------------------0------0--0--------------0-----0----0-----0----0----0----0--------|
B|----17------17------14---14-14--14-14-14--16--12------12\---10---10----10---10---10---10-----|
G|-14---14-16---16-13----13-----13-----------------13------------------------------------------|
D|---------------------------------------------------------------------------------------------|
A|---------------------------------------------------------------------------------------------|
E|---------------------------------------------------------------------------------------------|


e|-------7--7----------9--9-----------9--9----------4--4--------4--4---------4--4-------|
B|-----9--9--9------10--10--10-----10--10--10-----5--5--5-----4--4--4------4--4--4------|
G|---9------------9--------------9--------------4-----------4------------4--------------|  x2
D|--------------------------------------------------------------------------------------|
A|--------------------------------------------------------------------------------------|
E|--------------------------------------------------------------------------------------|




Guitar 1 

e|---------------------------------------------------------------------------------|
B|---------------------------------------------------------------------------------|
G|-----8-9-8---------8-9-8--------8-9-8--------8-9-8--------8-9-8--------8-9-8-----| x2
D|-7-9-------9---6-9-------9---6-9------9---6-9------9---7-9------9---7-9------9---|
A|---------------------------------------------------------------------------------|
E|---------------------------------------------------------------------------------|

Guitar 2 

e|------------------------------------------------------------------------|
B|------------------------------------------------------------------------|
G|--------------6-6-6-6-6-6-6-6-6-6-6---4-4-4-4-4-------------------------|
D|-7-7-7-7-7----6-6-6-6-6-6-6-6-6-6-6---4-4-4-4-4---7-7-7-7-7-7-7-7-7-7-7-|   x2
A|-7-7-7-7-7----4-4-4-4-4-4-4-4-4-4-4-0-2-2-2-2-2---7-7-7-7-7-7-7-7-7-7-7-|
E|-5-5-5-5-5--0-----------------------------------0-5-5-5-5-5-5-5-5-5-5-5-|
PM .......................................................................



Guitar 1 

e|----4---------------4---------------------------------------------------|
B|---4-4------5-7-5-----5-4-------------4-5-4--------4-5-4--7-5-4---------|
G|--4---4---6---------------4---------4------4-----4--------------6-4-----| x2
D|-6-------7--------7-------------------------------------------------7---|
A|------------------------------------------------------------------------|
E|----------------------------------0-----------4-------------------------|

Guitar 2 

e|------------------------------------------------------------------|
B|------------------------------------------------------------------|
G|------------------9--9------------------------------9--9----------|
D|-6--6---7~--------9--9---6~--------6--6---7~--------9--9---6~-----|
A|-6--6---7~--------7--7---6~--------6--6---7~--------7--7---6~-----|
E|-4--4---5~--------0--0---4~--------4--4---5~--------0--0---4~-----|



Guitar 1 

e|-
(Visited 1 times, 1 visits today)