Hate The Taste Tabs – Black Rebel Motorcycle Club

 Song: Hate The Taste
Artist: Black Rebel Motorcycle Club
 Specter at the Feast
Guitarist: Peter Hayes
Tuning: Standard
: Pini-Glock

Another song by Black Rebel Motorcycle Club which wasn't tabbed yet. It's only the guitar of Peter.

Tab taken from this video: https://www.youtube.com/watch?v=GWZ5piWRQ14

If you have suggestions or questions you can always leave a comment or contact me at my UG page! :)

Anyways enjoy this great song!

Cheers Nick! 

Intro & Verses: 

e|-----------------------|
B|-----------------------|
G|-----------------------|
D|-----------------------|
A|-------------3-1-------|
E|--1-1-3-1--1-----3-1-3-|

Chorus: (I wanna ride with you...)

e|-----------------------|
B|--3-3-3-3--------------|
G|----------5-3----------|  Repeat this part 3 times. 
D|-----------------------|
A|-----------------------|
E|-----------------------|

Then: 

e|------------------------------------|
B|------------------------------------|
G|--5b-5--3-4-3-0---------------------|
D|------------------------------------|
A|------------------------------------|
E|------------------------------------|

Bridge: (I'm a mess...)

e|--3-3-0-3-3-3-0-3-3-0-3-3-3-0-3-3-0-3-3-3----------------------|
B|--3-3-0-3-3-3-0-3-3-0-3-3-3-0-3-3-0-3-3-3-5b-5b-5b-5b----------|
G|--3-3-0-3-3-3-0-3-3-0-3-3-3-0-3-3-0-3-3-3----------------------|
D|---------------------------------------------------------------|
A|---------------------------------------------------------------|
E|---------------------------------------------------------------|

Chorus: (I wanna ride with you...)

e|-----------------------|
B|--3-3-3-3--------------|
G|----------5-3----------|  Repeat this part 3 times. 
D|-----------------------|
A|-----------------------|
E|-----------------------|

Than: 

e|------------------------------------|
B|------------------------------------|
G|--5b-5--3-4-3-0---------------------|
D|------------------------------------|
A|------------------------------------|
E|------------------------------------|


(Visited 1 times, 1 visits today)

Comments are closed.